  0
SECTION
  2
HEADER
  9
$ACADVER
  1
AC1015
  9
$ACADMAINTVER
 70
    20
  9
$DWGCODEPAGE
  3
ANSI_1252
  9
$INSBASE
 10
0.0
 20
0.0
 30
0.0
  9
$EXTMIN
 10
1.624712189078856
 20
4.552615492493654
 30
0.0
  9
$EXTMAX
 10
9.959208677324435
 20
8.115612741218638
 30
0.0
  9
$LIMMIN
 10
0.0
 20
0.0
  9
$LIMMAX
 10
12.0
 20
12.0
  9
$ORTHOMODE
 70
     0
  9
$REGENMODE
 70
     1
  9
$FILLMODE
 70
     1
  9
$QTEXTMODE
 70
     0
  9
$MIRRTEXT
 70
     0
  9
$LTSCALE
 40
1.0
  9
$ATTMODE
 70
     1
  9
$TEXTSIZE
 40
0.2
  9
$TRACEWID
 40
0.05
  9
$TEXTSTYLE
  7
Standard
  9
$CLAYER
  8
Vector
  9
$CELTYPE
  6
ByLayer
  9
$CECOLOR
 62
     6
  9
$CELTSCALE
 40
1.0
  9
$DISPSILH
 70
     0
  9
$DIMSCALE
 40
1.0
  9
$DIMASZ
 40
0.18
  9
$DIMEXO
 40
0.0625
  9
$DIMDLI
 40
0.38
  9
$DIMRND
 40
0.0
  9
$DIMDLE
 40
0.0
  9
$DIMEXE
 40
0.18
  9
$DIMTP
 40
0.0
  9
$DIMTM
 40
0.0
  9
$DIMTXT
 40
0.18
  9
$DIMCEN
 40
0.09
  9
$DIMTSZ
 40
0.0
  9
$DIMTOL
 70
     0
  9
$DIMLIM
 70
     0
  9
$DIMTIH
 70
     1
  9
$DIMTOH
 70
     1
  9
$DIMSE1
 70
     0
  9
$DIMSE2
 70
     0
  9
$DIMTAD
 70
     0
  9
$DIMZIN
 70
     0
  9
$DIMBLK
  1

  9
$DIMASO
 70
     1
  9
$DIMSHO
 70
     1
  9
$DIMPOST
  1

  9
$DIMAPOST
  1

  9
$DIMALT
 70
     0
  9
$DIMALTD
 70
     2
  9
$DIMALTF
 40
25.4
  9
$DIMLFAC
 40
1.0
  9
$DIMTOFL
 70
     0
  9
$DIMTVP
 40
0.0
  9
$DIMTIX
 70
     0
  9
$DIMSOXD
 70
     0
  9
$DIMSAH
 70
     0
  9
$DIMBLK1
  1

  9
$DIMBLK2
  1

  9
$DIMSTYLE
  2
Standard
  9
$DIMCLRD
 70
     0
  9
$DIMCLRE
 70
     0
  9
$DIMCLRT
 70
     0
  9
$DIMTFAC
 40
1.0
  9
$DIMGAP
 40
0.09
  9
$DIMJUST
 70
     0
  9
$DIMSD1
 70
     0
  9
$DIMSD2
 70
     0
  9
$DIMTOLJ
 70
     1
  9
$DIMTZIN
 70
     0
  9
$DIMALTZ
 70
     0
  9
$DIMALTTZ
 70
     0
  9
$DIMUPT
 70
     0
  9
$DIMDEC
 70
     4
  9
$DIMTDEC
 70
     4
  9
$DIMALTU
 70
     2
  9
$DIMALTTD
 70
     2
  9
$DIMTXSTY
  7
Standard
  9
$DIMAUNIT
 70
     0
  9
$DIMADEC
 70
     0
  9
$DIMALTRND
 40
0.0
  9
$DIMAZIN
 70
     0
  9
$DIMDSEP
 70
    46
  9
$DIMATFIT
 70
     3
  9
$DIMFRAC
 70
     0
  9
$DIMLDRBLK
  1

  9
$DIMLUNIT
 70
     2
  9
$DIMLWD
 70
    -2
  9
$DIMLWE
 70
    -2
  9
$DIMTMOVE
 70
     0
  9
$LUNITS
 70
     2
  9
$LUPREC
 70
     4
  9
$SKETCHINC
 40
0.1
  9
$FILLETRAD
 40
0.0
  9
$AUNITS
 70
     0
  9
$AUPREC
 70
     0
  9
$MENU
  1
.
  9
$ELEVATION
 40
0.0
  9
$PELEVATION
 40
0.0
  9
$THICKNESS
 40
0.0
  9
$LIMCHECK
 70
     0
  9
$CHAMFERA
 40
0.0
  9
$CHAMFERB
 40
0.0
  9
$CHAMFERC
 40
0.0
  9
$CHAMFERD
 40
0.0
  9
$SKPOLY
 70
     0
  9
$TDCREATE
 40
2457934.351275266
  9
$TDUCREATE
 40
2457934.559608600
  9
$TDUPDATE
 40
2457941.358156389
  9
$TDUUPDATE
 40
2457941.566489722
  9
$TDINDWG
 40
0.0340209722
  9
$TDUSRTIMER
 40
0.0340206134
  9
$USRTIMER
 70
     1
  9
$ANGBASE
 50
0.0
  9
$ANGDIR
 70
     0
  9
$PDMODE
 70
     0
  9
$PDSIZE
 40
0.0
  9
$PLINEWID
 40
0.0
  9
$SPLFRAME
 70
     0
  9
$SPLINETYPE
 70
     6
  9
$SPLINESEGS
 70
     8
  9
$HANDSEED
  5
E3
  9
$SURFTAB1
 70
     6
  9
$SURFTAB2
 70
     6
  9
$SURFTYPE
 70
     6
  9
$SURFU
 70
     6
  9
$SURFV
 70
     6
  9
$UCSBASE
  2

  9
$UCSNAME
  2

  9
$UCSORG
 10
0.0
 20
0.0
 30
0.0
  9
$UCSXDIR
 10
1.0
 20
0.0
 30
0.0
  9
$UCSYDIR
 10
0.0
 20
1.0
 30
0.0
  9
$UCSORTHOREF
  2

  9
$UCSORTHOVIEW
 70
     0
  9
$UCSORGTOP
 10
0.0
 20
0.0
 30
0.0
  9
$UCSORGBOTTOM
 10
0.0
 20
0.0
 30
0.0
  9
$UCSORGLEFT
 10
0.0
 20
0.0
 30
0.0
  9
$UCSORGRIGHT
 10
0.0
 20
0.0
 30
0.0
  9
$UCSORGFRONT
 10
0.0
 20
0.0
 30
0.0
  9
$UCSORGBACK
 10
0.0
 20
0.0
 30
0.0
  9
$PUCSBASE
  2

  9
$PUCSNAME
  2

  9
$PUCSORG
 10
0.0
 20
0.0
 30
0.0
  9
$PUCSXDIR
 10
1.0
 20
0.0
 30
0.0
  9
$PUCSYDIR
 10
0.0
 20
1.0
 30
0.0
  9
$PUCSORTHOREF
  2

  9
$PUCSORTHOVIEW
 70
     0
  9
$PUCSORGTOP
 10
0.0
 20
0.0
 30
0.0
  9
$PUCSORGBOTTOM
 10
0.0
 20
0.0
 30
0.0
  9
$PUCSORGLEFT
 10
0.0
 20
0.0
 30
0.0
  9
$PUCSORGRIGHT
 10
0.0
 20
0.0
 30
0.0
  9
$PUCSORGFRONT
 10
0.0
 20
0.0
 30
0.0
  9
$PUCSORGBACK
 10
0.0
 20
0.0
 30
0.0
  9
$USERI1
 70
     0
  9
$USERI2
 70
     0
  9
$USERI3
 70
     0
  9
$USERI4
 70
     0
  9
$USERI5
 70
     0
  9
$USERR1
 40
0.0
  9
$USERR2
 40
0.0
  9
$USERR3
 40
0.0
  9
$USERR4
 40
0.0
  9
$USERR5
 40
0.0
  9
$WORLDVIEW
 70
     1
  9
$SHADEDGE
 70
     3
  9
$SHADEDIF
 70
    70
  9
$TILEMODE
 70
     1
  9
$MAXACTVP
 70
    64
  9
$PINSBASE
 10
0.0
 20
0.0
 30
0.0
  9
$PLIMCHECK
 70
     0
  9
$PEXTMIN
 10
0.0
 20
0.0
 30
0.0
  9
$PEXTMAX
 10
0.0
 20
0.0
 30
0.0
  9
$PLIMMIN
 10
0.0
 20
0.0
  9
$PLIMMAX
 10
12.0
 20
9.0
  9
$UNITMODE
 70
     0
  9
$VISRETAIN
 70
     1
  9
$PLINEGEN
 70
     0
  9
$PSLTSCALE
 70
     1
  9
$TREEDEPTH
 70
  3020
  9
$CMLSTYLE
  2
Standard
  9
$CMLJUST
 70
     0
  9
$CMLSCALE
 40
1.0
  9
$PROXYGRAPHICS
 70
     1
  9
$MEASUREMENT
 70
     0
  9
$CELWEIGHT
370
    -1
  9
$ENDCAPS
280
     0
  9
$JOINSTYLE
280
     0
  9
$LWDISPLAY
290
     0
  9
$INSUNITS
 70
     1
  9
$HYPERLINKBASE
  1

  9
$STYLESHEET
  1

  9
$XEDIT
290
     1
  9
$CEPSNTYPE
380
     0
  9
$PSTYLEMODE
290
     1
  9
$FINGERPRINTGUID
  2
{FDEAD576-A652-11D2-9A35-0060089B3A3F}
  9
$VERSIONGUID
  2
{F618A605-E44B-438F-8AAC-4E32A6E88047}
  9
$EXTNAMES
290
     1
  9
$PSVPSCALE
 40
0.0
  9
$OLESTARTUP
290
     0
  0
ENDSEC
  0
SECTION
  2
CLASSES
  0
CLASS
  1
ACDBDICTIONARYWDFLT
  2
AcDbDictionaryWithDefault
  3
ObjectDBX Classes
 90
        0
280
     0
281
     0
  0
CLASS
  1
ACDBPLACEHOLDER
  2
AcDbPlaceHolder
  3
ObjectDBX Classes
 90
        0
280
     0
281
     0
  0
CLASS
  1
LAYOUT
  2
AcDbLayout
  3
ObjectDBX Classes
 90
        0
280
     0
281
     0
  0
CLASS
  1
DICTIONARYVAR
  2
AcDbDictionaryVar
  3
ObjectDBX Classes
 90
        0
280
     0
281
     0
  0
CLASS
  1
RASTERVARIABLES
  2
AcDbRasterVariables
  3
ISM
 90
        0
280
     0
281
     0
  0
CLASS
  1
IMAGEDEF
  2
AcDbRasterImageDef
  3
ISM
 90
        0
280
     0
281
     0
  0
CLASS
  1
IMAGEDEF_REACTOR
  2
AcDbRasterImageDefReactor
  3
ISM
 90
        1
280
     0
281
     0
  0
CLASS
  1
IMAGE
  2
AcDbRasterImage
  3
ISM
 90
      127
280
     0
281
     1
  0
ENDSEC
  0
SECTION
  2
TABLES
  0
TABLE
  2
VPORT
  5
8
330
0
100
AcDbSymbolTable
 70
     2
  0
VPORT
  5
D9
330
8
100
AcDbSymbolTableRecord
100
AcDbViewportTableRecord
  2
*Active
 70
     0
 10
0.0
 20
0.0
 11
1.0
 21
1.0
 12
5.999999999999998
 22
6.0
 13
0.0
 23
0.0
 14
0.5
 24
0.5
 15
0.5
 25
0.5
 16
0.0
 26
0.0
 36
1.0
 17
0.0
 27
0.0
 37
0.0
 40
12.09266409266409
 41
1.554123711340205
 42
50.0
 43
0.0
 44
0.0
 50
0.0
 51
0.0
 71
     0
 72
  1000
 73
     1
 74
     3
 75
     0
 76
     1
 77
     0
 78
     0
281
     0
 65
     1
110
0.0
120
0.0
130
0.0
111
1.0
121
0.0
131
0.0
112
0.0
122
1.0
132
0.0
 79
     0
146
0.0
  0
ENDTAB
  0
TABLE
  2
LTYPE
  5
5
330
0
100
AcDbSymbolTable
 70
     1
  0
LTYPE
  5
14
330
5
100
AcDbSymbolTableRecord
100
AcDbLinetypeTableRecord
  2
ByBlock
 70
     0
  3

 72
    65
 73
     0
 40
0.0
  0
LTYPE
  5
15
330
5
100
AcDbSymbolTableRecord
100
AcDbLinetypeTableRecord
  2
ByLayer
 70
     0
  3

 72
    65
 73
     0
 40
0.0
  0
LTYPE
  5
16
330
5
100
AcDbSymbolTableRecord
100
AcDbLinetypeTableRecord
  2
Continuous
 70
     0
  3
Solid line
 72
    65
 73
     0
 40
0.0
  0
ENDTAB
  0
TABLE
  2
LAYER
  5
2
330
0
100
AcDbSymbolTable
 70
     2
  0
LAYER
  5
10
330
2
100
AcDbSymbolTableRecord
100
AcDbLayerTableRecord
  2
0
 70
     0
 62
    -7
  6
Continuous
370
    -3
390
F
  0
LAYER
  5
8E
330
2
100
AcDbSymbolTableRecord
100
AcDbLayerTableRecord
  2
Vector
 70
     0
 62
     7
  6
Continuous
370
    -3
390
F
  0
ENDTAB
  0
TABLE
  2
STYLE
  5
3
330
0
100
AcDbSymbolTable
 70
     1
  0
STYLE
  5
11
330
3
100
AcDbSymbolTableRecord
100
AcDbTextStyleTableRecord
  2
Standard
 70
     0
 40
0.0
 41
1.0
 50
0.0
 71
     0
 42
0.2
  3
txt
  4

  0
ENDTAB
  0
TABLE
  2
VIEW
  5
6
330
0
100
AcDbSymbolTable
 70
     0
  0
ENDTAB
  0
TABLE
  2
UCS
  5
7
330
0
100
AcDbSymbolTable
 70
     0
  0
ENDTAB
  0
TABLE
  2
APPID
  5
9
330
0
100
AcDbSymbolTable
 70
     1
  0
APPID
  5
12
330
9
100
AcDbSymbolTableRecord
100
AcDbRegAppTableRecord
  2
ACAD
 70
     0
  0
ENDTAB
  0
TABLE
  2
DIMSTYLE
  5
A
330
0
100
AcDbSymbolTable
 70
     1
100
AcDbDimStyleTable
 71
     0
  0
DIMSTYLE
105
27
330
A
100
AcDbSymbolTableRecord
100
AcDbDimStyleTableRecord
  2
Standard
 70
     0
340
11
  0
ENDTAB
  0
TABLE
  2
BLOCK_RECORD
  5
1
330
0
100
AcDbSymbolTable
 70
     1
  0
BLOCK_RECORD
  5
1F
330
1
100
AcDbSymbolTableRecord
100
AcDbBlockTableRecord
  2
*Model_Space
340
22
  0
BLOCK_RECORD
  5
58
330
1
100
AcDbSymbolTableRecord
100
AcDbBlockTableRecord
  2
*Paper_Space
340
59
  0
BLOCK_RECORD
  5
5D
330
1
100
AcDbSymbolTableRecord
100
AcDbBlockTableRecord
  2
*Paper_Space0
340
5E
  0
ENDTAB
  0
ENDSEC
  0
SECTION
  2
BLOCKS
  0
BLOCK
  5
20
330
1F
100
AcDbEntity
  8
0
100
AcDbBlockBegin
  2
*Model_Space
 70
     0
 10
0.0
 20
0.0
 30
0.0
  3
*Model_Space
  1

  0
ENDBLK
  5
21
330
1F
100
AcDbEntity
  8
0
100
AcDbBlockEnd
  0
BLOCK
  5
5A
330
58
100
AcDbEntity
 67
     1
  8
0
100
AcDbBlockBegin
  2
*Paper_Space
 70
     0
 10
0.0
 20
0.0
 30
0.0
  3
*Paper_Space
  1

  0
ENDBLK
  5
5B
330
58
100
AcDbEntity
 67
     1
  8
0
100
AcDbBlockEnd
  0
BLOCK
  5
5F
330
5D
100
AcDbEntity
  8
0
100
AcDbBlockBegin
  2
*Paper_Space0
 70
     0
 10
0.0
 20
0.0
 30
0.0
  3
*Paper_Space0
  1

  0
ENDBLK
  5
60
330
5D
100
AcDbEntity
  8
0
100
AcDbBlockEnd
  0
ENDSEC
  0
SECTION
  2
ENTITIES
  0
IMAGE
  5
8D
330
1F
100
AcDbEntity
  8
0
 92
      140
310
8C00000001000000840000000600000005000000A0195835D2FEF93FBC17EED5E03512400000000000000000A1195835D2FEF93FE711DD97313B20400000000000000000B54B56661DEB2340E711DD97313B20400000000000000000B54B56661DEB2340BC17EED5E03512400000000000000000A0195835D2FEF93FBC17EE
310
D5E03512400000000000000000
100
AcDbRasterImage
 90
        0
 10
1.624712189078856
 20
4.552615492493654
 30
0.0
 11
0.010418120610307
 21
0.0
 31
0.0
 12
0.0
 22
0.010418120610307
 32
0.0
 13
800.0
 23
342.0
340
8B
 70
     7
280
     0
281
    50
282
    50
283
     0
360
8C
 71
     1
 91
        2
 14
-0.5
 24
-0.5
 14
799.5
 24
341.5
  0
SPLINE
  5
93
330
1F
100
AcDbEntity
  8
Vector
 62
     6
100
AcDbSpline
210
0.0
220
0.0
230
1.0
 70
     8
 71
     3
 72
     9
 73
     5
 74
     3
 42
0.0000000001
 43
0.0000000001
 44
0.0000000001
 12
-0.3715382276310714
 22
0.9284176567734816
 32
0.0
 13
0.1240904214623765
 23
-0.9922709142675149
 33
0.0
 40
0.0
 40
0.0
 40
0.0
 40
0.0
 40
0.8595285521034782
 40
1.452401615824223
 40
1.452401615824223
 40
1.452401615824223
 40
1.452401615824223
 10
8.199548910095366
 20
7.332204707297844
 30
0.0
 10
8.09309967181309
 20
7.598205202055781
 30
0.0
 10
7.697145556428406
 20
8.541061323772899
 30
0.0
 10
7.760943116424747
 20
7.688638348388899
 30
0.0
 10
7.785466405875013
 20
7.492541449394643
 30
0.0
 11
8.199548910095366
 21
7.332204707297844
 31
0.0
 11
7.785466405875013
 21
8.085414513115388
 31
0.0
 11
7.785466405875013
 21
7.492541449394643
 31
0.0
  0
LINE
  5
94
330
1F
100
AcDbEntity
  8
Vector
 62
     6
100
AcDbLine
 10
7.909313599713534
 20
7.966094147558592
 30
0.0
 11
8.383083695368028
 21
7.608133050888213
 31
0.0
  0
LINE
  5
95
330
1F
100
AcDbEntity
  8
Vector
 62
     6
100
AcDbLine
 10
8.383083695368028
 20
7.608133050888213
 30
0.0
 11
8.73747865191126
 21
7.589489230572109
 31
0.0
  0
LINE
  5
96
330
1F
100
AcDbEntity
  8
Vector
 62
     6
100
AcDbLine
 10
8.73747865191126
 20
7.589489230572109
 30
0.0
 11
9.054568913034799
 21
7.518642769681761
 31
0.0
  0
LINE
  5
97
330
1F
100
AcDbEntity
  8
Vector
 62
     6
100
AcDbLine
 10
9.054568913034799
 20
7.518642769681761
 30
0.0
 11
9.356737243482037
 21
7.365763555711406
 31
0.0
  0
SPLINE
  5
98
330
1F
100
AcDbEntity
  8
Vector
 62
     6
100
AcDbSpline
210
0.0
220
0.0
230
1.0
 70
     8
 71
     3
 72
    20
 73
    16
 74
    14
 42
0.0000000001
 43
0.0000000001
 44
0.0000000001
 12
0.8193554928175938
 22
0.5732857720104678
 32
0.0
 13
-1.0
 23
0.0
 33
0.0
 40
0.0
 40
0.0
 40
0.0
 40
0.0
 40
0.5460512859139673
 40
0.9447723324065256
 40
1.034303697679231
 40
1.136154926381199
 40
1.317606552327528
 40
2.059785620348487
 40
2.303304154747325
 40
2.655095795691329
 40
2.980300297473888
 40
3.267246089091814
 40
3.453918763922328
 40
3.572465949415284
 40
3.928813741534031
 40
3.928813741534031
 40
3.928813741534031
 40
3.928813741534031
 10
9.024725095439215
 20
7.115936532408159
 30
0.0
 10
9.173861802263788
 20
7.220284343408992
 30
0.0
 10
9.422126964918206
 20
7.424108225335356
 30
0.0
 10
9.695060834733784
 20
7.608492455928557
 30
0.0
 10
9.921341199150742
 20
7.646933730763057
 30
0.0
 10
9.961937399695685
 20
7.498936962200692
 30
0.0
 10
9.874251109312556
 20
7.176544788848143
 30
0.0
 10
9.581627675141186
 20
6.866924548052666
 30
0.0
 10
9.534056233359356
 20
6.416251492684062
 30
0.0
 10
9.412897238262431
 20
6.13575367373131
 30
0.0
 10
9.244391653980951
 20
5.842880585215647
 30
0.0
 10
8.965180182199945
 20
5.764526876072544
 30
0.0
 10
8.76273641852912
 20
5.821594110844458
 30
0.0
 10
8.568397639691118
 20
5.69873724870016
 30
0.0
 10
8.40487400588711
 20
5.684092145726641
 30
0.0
 10
8.286091408514195
 20
5.684092145726641
 30
0.0
 11
9.024725095439215
 21
7.115936532408159
 31
0.0
 11
9.461190495674017
 21
7.444067544728195
 31
0.0
 11
9.815585452217248
 21
7.626776843048894
 31
0.0
 11
9.905116817489954
 21
7.626776843048894
 31
0.0
 11
9.946152017457229
 21
7.533557825934646
 31
0.0
 11
9.916308243618665
 21
7.354577263521743
 31
0.0
 11
9.576835173994716
 21
6.694586502973876
 31
0.0
 11
9.528339008689293
 21
6.455945771860289
 31
0.0
 11
9.401502904239876
 21
6.127814759540253
 31
0.0
 11
9.20751828677519
 21
5.866801472202766
 31
0.0
 11
8.931463269375946
 21
5.788497483185977
 31
0.0
 11
8.744939617249407
 21
5.795955011312422
 31
0.0
 11
8.636755904266863
 21
5.747481106645974
 31
0.0
 11
8.286091408514195
 21
5.684092145726641
 31
0.0
  0
SPLINE
  5
9A
330
1F
100
AcDbEntity
  8
Vector
 62
     6
100
AcDbSpline
210
0.0
220
0.0
230
1.0
 70
     8
 71
     3
 72
    20
 73
    16
 74
    14
 42
0.0000000001
 43
0.0000000001
 44
0.0000000001
 12
-0.0905769303833984
 22
-0.9958894615781016
 32
0.0
 13
0.998921076580518
 23
0.0464400986564285
 33
0.0
 40
0.0
 40
0.0
 40
0.0
 40
0.0
 40
0.0804948741910337
 40
0.2516151428639218
 40
0.2706285249975326
 40
0.3131503008916199
 40
0.6417585648892608
 40
1.03876386448151
 40
1.277336669270553
 40
1.326381398216573
 40
1.54216982404035
 40
1.844338202293806
 40
1.999498779449591
 40
2.11392815417002
 40
2.193750244170106
 40
2.193750244170106
 40
2.193750244170106
 40
2.193750244170106
 10
7.778747034473553
 20
7.499998977521084
 30
0.0
 10
7.77631670826828
 20
7.473277645215115
 30
0.0
 10
7.739394888056073
 20
7.392798445253562
 30
0.0
 10
7.777467610878183
 20
7.305291718935624
 30
0.0
 10
7.802346507519993
 20
7.226728190415816
 30
0.0
 10
7.682477705388624
 20
7.134188426689382
 30
0.0
 10
7.590007546112103
 20
6.897053983773306
 30
0.0
 10
7.604134344119058
 20
6.552005247635669
 30
0.0
 10
7.749955037801309
 20
6.363040814168642
 30
0.0
 10
7.770790316402101
 20
6.195117708145639
 30
0.0
 10
7.790270075605383
 20
6.013773540146034
 30
0.0
 10
7.916926526563596
 20
5.775459450765312
 30
0.0
 10
8.115791752370002
 20
5.770101468834324
 30
0.0
 10
8.2351813767453
 20
5.752761365459669
 30
0.0
 10
8.274434639407546
 20
5.67912776124066
 30
0.0
 10
8.301013295433477
 20
5.680363409818848
 30
0.0
 11
7.778747034473553
 21
7.499998977521084
 31
0.0
 11
7.760094686763707
 21
7.421694988504295
 31
0.0
 11
7.793668921392836
 21
7.253900718281055
 31
0.0
 11
7.797399425940419
 21
7.235256897964951
 31
0.0
 11
7.771286112892425
 21
7.201698049551389
 31
0.0
 11
7.618336695395008
 21
6.910854677863561
 31
0.0
 11
7.65564143457172
 21
6.515605940560973
 31
0.0
 11
7.756364182216124
 21
6.299337793826712
 31
0.0
 11
7.763825147554271
 21
6.250863889160267
 31
0.0
 11
7.801129886730983
 21
6.038324478333802
 31
0.0
 11
7.97646211272881
 21
5.7922262472492
 31
0.0
 11
8.129411530226221
 21
5.766124898806651
 31
0.0
 11
8.237595243208765
 21
5.728837286329866
 31
0.0
 11
8.301013295433477
 21
5.680363409818848
 31
0.0
  0
SPLINE
  5
9B
330
1F
100
AcDbEntity
  8
Vector
 62
     6
100
AcDbSpline
210
0.0
220
0.0
230
1.0
 70
     8
 71
     3
 72
    10
 73
     6
 74
     4
 42
0.0000000001
 43
0.0000000001
 44
0.0000000001
 12
0.9864061475815075
 22
-0.1643256279872652
 32
0.0
 13
0.20475494265164
 23
-0.9788132679217847
 33
0.0
 40
0.0
 40
0.0
 40
0.0
 40
0.0
 40
0.066920278278383
 40
0.1378145100151953
 40
0.2087643545731723
 40
0.2087643545731723
 40
0.2087643545731723
 40
0.2087643545731723
 10
7.956380617062492
 20
6.611820526246535
 30
0.0
 10
7.978384141693046
 20
6.608154953995476
 30
0.0
 10
8.031470203261655
 20
6.605704784076593
 30
0.0
 10
8.054101333227862
 20
6.52775685562725
 30
0.0
 10
8.054254096837521
 20
6.482432903211867
 30
0.0
 10
8.059096540622057
 20
6.459284020141755
 30
0.0
 11
7.956380617062492
 21
6.611820526246535
 31
0.0
 11
8.020944928123967
 21
6.594220146079805
 31
0.0
 11
8.050292322353264
 21
6.529685484497807
 31
0.0
 11
8.059096540622057
 21
6.459284020141755
 31
0.0
  0
SPLINE
  5
9C
330
1F
100
AcDbEntity
  8
Vector
 62
     6
100
AcDbSpline
210
0.0
220
0.0
230
1.0
 70
     8
 71
     3
 72
    11
 73
     7
 74
     5
 42
0.0000000001
 43
0.0000000001
 44
0.0000000001
 12
0.6645342269437269
 22
0.7472578278079818
 32
0.0
 13
0.8665981038880307
 23
0.4990067397717889
 33
0.0
 40
0.0
 40
0.0
 40
0.0
 40
0.0
 40
0.0586851053409352
 40
0.1388357243807223
 40
0.218937776652495
 40
0.2714312191574668
 40
0.2714312191574668
 40
0.2714312191574668
 40
0.2714312191574668
 10
8.625501555546634
 20
6.309680915423999
 30
0.0
 10
8.638500975916917
 20
6.324298550204582
 30
0.0
 10
8.678309363461991
 20
6.367596862615529
 30
0.0
 10
8.743758239604101
 20
6.294475853179754
 30
0.0
 10
8.818252400092337
 20
6.319770549652326
 30
0.0
 10
8.85685622576333
 20
6.339083521787784
 30
0.0
 10
8.872019798343785
 20
6.347815048989051
 30
0.0
 11
8.625501555546634
 21
6.309680915423999
 31
0.0
 11
8.67245738631351
 21
6.344881647602026
 31
0.0
 11
8.74582591564377
 21
6.312614316811025
 31
0.0
 11
8.825063923819897
 21
6.3243478942037
 31
0.0
 11
8.872019798343785
 21
6.347815048989051
 31
0.0
  0
SPLINE
  5
9D
330
1F
100
AcDbEntity
  8
Vector
 62
     6
100
AcDbSpline
210
0.0
220
0.0
230
1.0
 70
     8
 71
     3
 72
    20
 73
    16
 74
    14
 42
0.0000000001
 43
0.0000000001
 44
0.0000000001
 12
0.8945092148146112
 22
0.4470495102466256
 32
0.0
 13
-0.5683672571052299
 23
0.8227749759507018
 33
0.0
 40
0.0
 40
0.0
 40
0.0
 40
0.0
 40
0.0276827533299198
 40
0.1001562715945691
 40
0.1459897996854899
 40
0.2642921347539484
 40
0.3499897384610464
 40
0.4248099264900813
 40
0.4572250617950264
 40
0.506053056556641
 40
0.5573048451331728
 40
0.6283273511189205
 40
0.657373127183049
 40
0.6839362703527545
 40
0.775595691648635
 40
0.775595691648635
 40
0.775595691648635
 40
0.775595691648635
 10
8.006271187252302
 20
6.033941860773843
 30
0.0
 10
8.014525346567319
 20
6.038067047879983
 30
0.0
 10
8.041574049095506
 20
6.065839773862428
 30
0.0
 10
8.08618132977457
 20
6.014532397372315
 30
0.0
 10
8.142795404987653
 20
5.959648982104815
 30
0.0
 10
8.224826160497599
 20
5.993093452325611
 30
0.0
 10
8.350730795733998
 20
5.904493858891821
 30
0.0
 10
8.251641097822581
 20
5.896467970543723
 30
0.0
 10
8.196162166878391
 20
5.902836104966337
 30
0.0
 10
8.188367884631654
 20
5.845812144458871
 30
0.0
 10
8.113018308887902
 20
5.83070428785441
 30
0.0
 10
8.101361208863121
 20
5.893566917369603
 30
0.0
 10
8.059906953693936
 20
5.916028612586581
 30
0.0
 10
8.06869475012718
 20
5.971956488373541
 30
0.0
 10
8.020701852452633
 20
5.991203121222993
 30
0.0
 10
8.003336447829369
 20
6.016341480607117
 30
0.0
 11
8.006271187252302
 21
6.033941860773843
 31
0.0
 11
8.029749146392759
 21
6.048608839553544
 31
0.0
 11
8.091378674274281
 21
6.010474705988492
 31
0.0
 11
8.126595591106458
 21
5.981140748429091
 31
0.0
 11
8.243985211780668
 21
5.966473797804816
 31
0.0
 11
8.311484262265068
 21
5.913672685460063
 31
0.0
 11
8.238115732934808
 21
5.899005734835789
 31
0.0
 11
8.205833599282577
 21
5.896072333448763
 31
0.0
 11
8.179420900719193
 21
5.855004798496686
 31
0.0
 11
8.129530330529391
 21
5.843271221104011
 31
0.0
 11
8.085509195428421
 21
5.899005734835789
 31
0.0
 11
8.064966019467917
 21
5.919539488234114
 31
0.0
 11
8.062031280044983
 21
5.945940016251064
 31
0.0
 11
8.003336447829369
 21
6.016341480607117
 31
0.0
  0
LINE
  5
9E
330
1F
100
AcDbEntity
  8
Vector
 62
     6
100
AcDbLine
 10
8.003438489194742
 20
6.016413586657375
 30
0.0
 11
8.006063691474167
 21
6.034189009117913
 31
0.0
  0
SPLINE
  5
9F
330
1F
100
AcDbEntity
  8
Vector
 62
     6
100
AcDbSpline
210
0.0
220
0.0
230
1.0
 70
     8
 71
     3
 72
    10
 73
     6
 74
     4
 42
0.0000000001
 43
0.0000000001
 44
0.0000000001
 12
-0.8021743177578905
 22
0.5970899127683059
 32
0.0
 13
-0.9984118642996776
 23
0.0563360384269452
 33
0.0
 40
0.0
 40
0.0
 40
0.0
 40
0.0
 40
0.368568145011432
 40
0.5194372164960869
 40
0.6756391899364458
 40
0.6756391899364458
 40
0.6756391899364458
 40
0.6756391899364458
 10
7.938590457630233
 20
6.084936915055401
 30
0.0
 10
7.840038490872954
 20
6.158293022240084
 30
0.0
 10
7.702039862043653
 20
6.263491928185577
 30
0.0
 10
7.492701757263335
 20
6.35612439618003
 30
0.0
 10
7.38873131229682
 20
6.35772212129523
 30
0.0
 10
7.336746677793527
 20
6.360655388087931
 30
0.0
 11
7.938590457630233
 21
6.084936915055401
 31
0.0
 11
7.632653203973831
 21
6.290472494316865
 31
0.0
 11
7.492222975551499
 21
6.345616194554459
 31
0.0
 11
7.336746677793527
 21
6.360655388087931
 31
0.0
  0
SPLINE
  5
A0
330
1F
100
AcDbEntity
  8
Vector
 62
     6
100
AcDbSpline
210
0.0
220
0.0
230
1.0
 70
     8
 71
     3
 72
    10
 73
     6
 74
     4
 42
0.0000000001
 43
0.0000000001
 44
0.0000000001
 12
-0.8945093026086786
 22
0.4470493345778919
 32
0.0
 13
-0.9997739382881858
 23
0.0212619923744408
 33
0.0
 40
0.0
 40
0.0
 40
0.0
 40
0.0
 40
0.3801569566834982
 40
0.5565471098693699
 40
0.6619890057959579
 40
0.6619890057959579
 40
0.6619890057959579
 40
0.6619890057959579
 10
7.933575072013674
 20
6.032299751765958
 30
0.0
 10
7.820223760612076
 20
6.088949389939462
 30
0.0
 10
7.663643290953564
 20
6.184697713621262
 30
0.0
 10
7.448648611323613
 20
6.26161247926088
 30
0.0
 10
7.354332246954808
 20
6.244607640276164
 30
0.0
 10
7.319192893771109
 20
6.245354941871877
 30
0.0
 11
7.933575072013674
 21
6.032299751765958
 31
0.0
 11
7.595037964999228
 21
6.205250435167755
 31
0.0
 11
7.424515554148605
 21
6.250367987612747
 31
0.0
 11
7.319192893771109
 21
6.245354941871877
 31
0.0
  0
SPLINE
  5
A1
330
1F
100
AcDbEntity
  8
Vector
 62
     6
100
AcDbSpline
210
0.0
220
0.0
230
1.0
 70
     8
 71
     3
 72
    10
 73
     6
 74
     4
 42
0.0000000001
 43
0.0000000001
 44
0.0000000001
 12
-0.9226428449622229
 22
0.3856555206917381
 32
0.0
 13
-0.9602296597547233
 23
-0.2792113903968254
 33
0.0
 40
0.0
 40
0.0
 40
0.0
 40
0.0
 40
0.3287444897206453
 40
0.4822256555840507
 40
0.5964272645839714
 40
0.5964272645839714
 40
0.5964272645839714
 40
0.5964272645839714
 10
7.958651912582418
 20
5.969636468839343
 30
0.0
 10
7.857547328828581
 20
6.011897177958595
 30
0.0
 10
7.713682655466723
 20
6.092276807803588
 30
0.0
 10
7.512645471502541
 20
6.107753787975622
 30
0.0
 10
7.423453572558481
 20
6.095565711733542
 30
0.0
 10
7.386900315174003
 20
6.084936915055401
 30
0.0
 11
7.958651912582418
 21
5.969636468839343
 31
0.0
 11
7.652714658926022
 21
6.089949960796271
 31
0.0
 11
7.499746032097824
 21
6.102482617381596
 31
0.0
 11
7.386900315174003
 21
6.084936915055401
 31
0.0
  0
SPLINE
  5
A2
330
1F
100
AcDbEntity
  8
Vector
 62
     6
100
AcDbSpline
210
0.0
220
0.0
230
1.0
 70
     8
 71
     3
 72
    11
 73
     7
 74
     5
 42
0.0000000001
 43
0.0000000001
 44
0.0000000001
 12
0.9514858794517547
 22
-0.3076924133025077
 32
0.0
 13
0.4746408585144275
 23
-0.8801795586291964
 33
0.0
 40
0.0
 40
0.0
 40
0.0
 40
0.0
 40
0.3815512420823412
 40
0.5756011331915849
 40
0.6879800201531204
 40
0.7847128977762502
 40
0.7847128977762502
 40
0.7847128977762502
 40
0.7847128977762502
 10
8.420065463996792
 20
5.851829457519709
 30
0.0
 10
8.541079003706334
 20
5.812695983361414
 30
0.0
 10
8.721819500839906
 20
5.746773840551833
 30
0.0
 10
8.932321429745185
 20
5.657617573098637
 30
0.0
 10
9.045478424436918
 20
5.578273659460662
 30
0.0
 10
9.07681983371526
 20
5.514256618618855
 30
0.0
 10
9.092124292409131
 20
5.485875851441768
 30
0.0
 11
8.420065463996792
 21
5.851829457519709
 31
0.0
 11
8.778664025963429
 21
5.72148981777018
 31
0.0
 11
8.954201778673585
 21
5.63877429556922
 31
0.0
 11
9.041970655028663
 21
5.568591401798155
 31
0.0
 11
9.092124292409131
 21
5.485875851441768
 31
0.0
  0
SPLINE
  5
A3
330
1F
100
AcDbEntity
  8
Vector
 62
     6
100
AcDbSpline
210
0.0
220
0.0
230
1.0
 70
     8
 71
     3
 72
    10
 73
     6
 74
     4
 42
0.0000000001
 43
0.0000000001
 44
0.0000000001
 12
0.8945092451880706
 22
-0.4470494494718323
 32
0.0
 13
0.5645259788312459
 23
-0.825415301060396
 33
0.0
 40
0.0
 40
0.0
 40
0.0
 40
0.0
 40
0.2691843254799558
 40
0.5300519616658064
 40
0.7457054164258416
 40
0.7457054164258416
 40
0.7457054164258416
 40
0.7457054164258416
 10
8.384957895951949
 20
5.804205368126567
 30
0.0
 10
8.46522051855246
 20
5.764092466622479
 30
0.0
 10
8.620158916689019
 20
5.682753846414309
 30
0.0
 10
8.841395342768631
 20
5.554146076126054
 30
0.0
 10
8.921144176007661
 20
5.412364228505912
 30
0.0
 10
8.961724835219911
 20
5.353029674744089
 30
0.0
 11
8.384957895951949
 21
5.804205368126567
 31
0.0
 11
8.623187728205458
 21
5.678878802273338
 31
0.0
 11
8.836340719890223
 21
5.528486895094037
 31
0.0
 11
8.961724835219911
 21
5.353029674744089
 31
0.0
  0
SPLINE
  5
A4
330
1F
100
AcDbEntity
  8
Vector
 62
     6
100
AcDbSpline
210
0.0
220
0.0
230
1.0
 70
     8
 71
     3
 72
    11
 73
     7
 74
     5
 42
0.0000000001
 43
0.0000000001
 44
0.0000000001
 12
0.8596388994124884
 22
-0.5109021066866779
 32
0.0
 13
0.0587489156796514
 23
-0.9982727908274698
 33
0.0
 40
0.0
 40
0.0
 40
0.0
 40
0.0
 40
0.2158679493167232
 40
0.3953551770917545
 40
0.5227162519853595
 40
0.7090351184753178
 40
0.7090351184753178
 40
0.7090351184753178
 40
0.7090351184753178
 10
8.357373384453438
 20
5.771620472266899
 30
0.0
 10
8.419229546576458
 20
5.73485800890955
 30
0.0
 10
8.537120544808916
 20
5.674901280850571
 30
0.0
 10
8.670695231112393
 20
5.559925192931482
 30
0.0
 10
8.770137637895844
 20
5.428274457200976
 30
0.0
 10
8.805107531266065
 20
5.324793559976925
 30
0.0
 10
8.808756208391713
 20
5.262794541698678
 30
0.0
 11
8.357373384453438
 21
5.771620472266899
 31
0.0
 11
8.542941864639686
 21
5.661333071791716
 31
0.0
 11
8.678356707445466
 21
5.543526088627508
 31
0.0
 11
8.753587185394685
 21
5.440758298996776
 31
0.0
 11
8.808756208391713
 21
5.262794541698678
 31
0.0
  0
SPLINE
  5
A5
330
1F
100
AcDbEntity
  8
Vector
 62
     6
100
AcDbSpline
210
0.0
220
0.0
230
1.0
 70
     8
 71
     3
 72
    12
 73
     8
 74
     6
 42
0.0000000001
 43
0.0000000001
 44
0.0000000001
 12
0.998904175805171
 22
-0.0468022174580666
 32
0.0
 13
-0.0897675129771266
 23
0.9959627471014675
 33
0.0
 40
0.0
 40
0.0
 40
0.0
 40
0.0
 40
0.1912874586173855
 40
0.4448065806785312
 40
0.6402464448005967
 40
0.7919538956986525
 40
0.8783037543283944
 40
0.8783037543283944
 40
0.8783037543283944
 40
0.8783037543283944
 10
8.403206278874002
 20
5.404582375426038
 30
0.0
 10
8.466898892604691
 20
5.401598149680967
 30
0.0
 10
8.61472710736921
 20
5.394272044261234
 30
0.0
 10
8.83087805403642
 20
5.436794869638181
 30
0.0
 10
8.995039021112836
 20
5.55823526190154
 30
0.0
 10
9.073224820018529
 20
5.690874578589307
 30
0.0
 10
9.065985377383492
 20
5.771850714649793
 30
0.0
 10
9.063401573365119
 20
5.800517795454027
 30
0.0
 11
8.403206278874002
 21
5.404582375426038
 31
0.0
 11
8.594477829967644
 21
5.402115481320045
 31
0.0
 11
8.841279793267837
 21
5.460087337956039
 31
0.0
 11
8.996765061214446
 21
5.578497945334021
 31
0.0
 11
9.064635608779475
 21
5.714176755143103
 31
0.0
 11
9.063401573365119
 21
5.800517795454027
 31
0.0
  0
SPLINE
  5
A6
330
1F
100
AcDbEntity
  8
Vector
 62
     6
100
AcDbSpline
210
0.0
220
0.0
230
1.0
 70
     8
 71
     3
 72
     9
 73
     5
 74
     3
 42
0.0000000001
 43
0.0000000001
 44
0.0000000001
 12
-0.6799326432637068
 22
-0.7332745738292232
 32
0.0
 13
-0.9964762616199976
 23
-0.0838752646960595
 33
0.0
 40
0.0
 40
0.0
 40
0.0
 40
0.0
 40
0.0523614758502981
 40
0.1700252341683852
 40
0.1700252341683852
 40
0.1700252341683852
 40
0.1700252341683852
 10
8.128054581349026
 20
5.844652498229979
 30
0.0
 10
8.116187155788999
 20
5.83185405193358
 30
0.0
 10
8.066784343180067
 20
5.799828308785662
 30
0.0
 10
8.007950342012376
 20
5.798604449845272
 30
0.0
 10
7.968867294673387
 20
5.79531475688725
 30
0.0
 11
8.128054581349026
 21
5.844652498229979
 31
0.0
 11
8.084864216986908
 21
5.815049853424341
 31
0.0
 11
7.968867294673387
 21
5.79531475688725
 31
0.0
  0
SPLINE
  5
A7
330
1F
100
AcDbEntity
  8
Vector
 62
     6
100
AcDbSpline
210
0.0
220
0.0
230
1.0
 70
     8
 71
     3
 72
    10
 73
     6
 74
     4
 42
0.0000000001
 43
0.0000000001
 44
0.0000000001
 12
0.7732161363081862
 22
-0.6341425758870325
 32
0.0
 13
0.7072690112705372
 23
-0.7069445138738944
 33
0.0
 40
0.0
 40
0.0
 40
0.0
 40
0.0
 40
0.0431581746844378
 40
0.0994279415983762
 40
0.1571088612492744
 40
0.1571088612492744
 40
0.1571088612492744
 40
0.1571088612492744
 10
8.135458618807092
 20
5.840952171148703
 30
0.0
 10
8.146582151166963
 20
5.831829359127046
 30
0.0
 10
8.153425010061075
 20
5.79440630261163
 30
0.0
 10
8.20741302363025
 20
5.773914520892294
 30
0.0
 10
8.22675084259662
 20
5.739834294086132
 30
0.0
 10
8.24034948493351
 20
5.726241890851998
 30
0.0
 11
8.135458618807092
 21
5.840952171148703
 31
0.0
 11
8.157670818695329
 21
5.803948844025086
 31
0.0
 11
8.202095174714784
 21
5.769412439162888
 31
0.0
 11
8.24034948493351
 21
5.726241890851998
 31
0.0
  0
SPLINE
  5
A8
330
1F
100
AcDbEntity
  8
Vector
 62
     6
100
AcDbSpline
210
0.0
220
0.0
230
1.0
 70
     8
 71
     3
 72
    26
 73
    22
 74
    20
 42
0.0000000001
 43
0.0000000001
 44
0.0000000001
 12
0.5555839517401017
 22
-0.8314604455828625
 32
0.0
 13
0.818537096335933
 23
0.5744536725637146
 33
0.0
 40
0.0
 40
0.0
 40
0.0
 40
0.0
 40
0.0871245502522947
 40
0.2157005936560802
 40
0.4980136719558583
 40
0.518401979368123
 40
0.5699858475699424
 40
0.662968819513007
 40
0.8748280274067926
 40
1.053870798950247
 40
1.22867455571358
 40
1.399257864646906
 40
1.561532191340205
 40
1.690130225458758
 40
1.872243960938916
 40
2.206754271401033
 40
2.295319736721094
 40
2.437023489946484
 40
2.512340224562711
 40
2.617220082551301
 40
2.934411350936045
 40
2.934411350936045
 40
2.934411350936045
 40
2.934411350936045
 10
8.288486842693458
 20
5.68508828475754
 30
0.0
 10
8.304621843334375
 20
5.660941412299547
 30
0.0
 10
8.323372546354251
 20
5.590245739240277
 30
0.0
 10
8.424911164472547
 20
5.450336856296638
 30
0.0
 10
8.382508184956584
 20
5.296598226860615
 30
0.0
 10
8.342145053014743
 20
5.17893583730745
 30
0.0
 10
8.395387278938862
 20
5.136852911744147
 30
0.0
 10
8.369938876821713
 20
5.009109930168323
 30
0.0
 10
8.34849653167037
 20
4.851395057622135
 30
0.0
 10
8.231137230887942
 20
4.697948475544812
 30
0.0
 10
8.100819091035527
 20
4.572329655914001
 30
0.0
 10
7.914999577881717
 20
4.565468106028715
 30
0.0
 10
7.783358999493694
 20
4.649564122800336
 30
0.0
 10
7.656061783483218
 20
4.745972030897357
 30
0.0
 10
7.572156870934288
 20
4.957784428238223
 30
0.0
 10
7.594066363109003
 20
5.154425901270619
 30
0.0
 10
7.571303413204735
 20
5.353137391617327
 30
0.0
 10
7.682023980507116
 20
5.420029129972251
 30
0.0
 10
7.662028716036738
 20
5.534169408177096
 30
0.0
 10
7.747511686982007
 20
5.688655654249809
 30
0.0
 10
7.892208344310603
 20
5.73356365026067
 30
0.0
 10
7.978752617579523
 20
5.794300879936923
 30
0.0
 11
8.288486842693458
 21
5.68508828475754
 31
0.0
 11
8.323885044850136
 21
5.605478897492346
 31
0.0
 11
8.381407101476234
 21
5.490487541561233
 31
0.0
 11
8.352646095041691
 21
5.209643316610872
 31
0.0
 11
8.348221297893601
 21
5.189740948678004
 31
0.0
 11
8.374769949511112
 21
5.145513530078737
 31
0.0
 11
8.379194702902182
 21
5.052635897524968
 31
0.0
 11
8.328309798241214
 21
4.846978292639988
 31
0.0
 11
8.226539988919263
 21
4.699671741690835
 31
0.0
 11
8.089371977440642
 21
4.591314508404011
 31
0.0
 11
7.91901816237938
 21
4.582469002159815
 31
0.0
 11
7.775212998935629
 21
4.657655650380622
 31
0.0
 11
7.677867986761782
 21
4.741687804845625
 31
0.0
 11
7.602646785300322
 21
4.907540702020295
 31
0.0
 11
7.582735329404954
 21
5.241457879969541
 31
0.0
 11
7.587160082796032
 21
5.3299127453235
 31
0.0
 11
7.666806037648562
 21
5.447115456699094
 31
0.0
 11
7.67123079103964
 21
5.522302104919901
 31
0.0
 11
7.715478543735486
 21
5.617391121073577
 31
0.0
 11
7.978752617579523
 21
5.794300879936923
 31
0.0
  0
SPLINE
  5
A9
330
1F
100
AcDbEntity
  8
Vector
 62
     6
100
AcDbSpline
210
0.0
220
0.0
230
1.0
 70
     8
 71
     3
 72
     9
 73
     5
 74
     3
 42
0.0000000001
 43
0.0000000001
 44
0.0000000001
 12
-0.9685816625020956
 22
-0.2486957238568384
 32
0.0
 13
-0.9401448098332171
 23
0.3407751994257568
 33
0.0
 40
0.0
 40
0.0
 40
0.0
 40
0.0
 40
0.0745108538880702
 40
0.4686228456495443
 40
0.4686228456495443
 40
0.4686228456495443
 40
0.4686228456495443
 10
8.18560534257876
 20
5.333947277331198
 30
0.0
 10
8.161548727000974
 20
5.327770433750236
 30
0.0
 10
8.002280699698371
 20
5.340209151711045
 30
0.0
 10
7.851280707158744
 20
5.379152531770529
 30
0.0
 10
7.72777325930955
 20
5.423920395966728
 30
0.0
 11
8.18560534257876
 21
5.333947277331198
 31
0.0
 11
8.111110638882877
 21
5.33239599773297
 31
0.0
 11
7.72777325930955
 21
5.423920395966728
 31
0.0
  0
SPLINE
  5
AB
330
1F
100
AcDbEntity
  8
Vector
 62
     6
100
AcDbSpline
210
0.0
220
0.0
230
1.0
 70
     8
 71
     3
 72
     9
 73
     5
 74
     3
 42
0.0000000001
 43
0.0000000001
 44
0.0000000001
 12
-0.9983157085027293
 22
-0.0580150511220475
 32
0.0
 13
-0.9497644933002689
 23
0.3129655049140133
 33
0.0
 40
0.0
 40
0.0
 40
0.0
 40
0.0
 40
0.128851147128362
 40
0.539878664832191
 40
0.539878664832191
 40
0.539878664832191
 40
0.539878664832191
 10
8.190261264294569
 20
4.984641637768255
 30
0.0
 10
8.147383222882289
 20
4.982149869138993
 30
0.0
 10
7.966504073660558
 20
4.971724500925303
 30
0.0
 10
7.792716846406753
 20
5.037940673615264
 30
0.0
 10
7.662590399045271
 20
5.080819818485842
 30
0.0
 11
8.190261264294569
 21
4.984641637768255
 31
0.0
 11
8.06144747391427
 21
4.981539134882652
 31
0.0
 11
7.662590399045271
 21
5.080819818485842
 31
0.0
  0
SPLINE
  5
AC
330
1F
100
AcDbEntity
  8
Vector
 62
     6
100
AcDbSpline
210
0.0
220
0.0
230
1.0
 70
     8
 71
     3
 72
    10
 73
     6
 74
     4
 42
0.0000000001
 43
0.0000000001
 44
0.0000000001
 12
-0.8753354593334373
 22
-0.4835161151745827
 32
0.0
 13
-0.9744137972170831
 23
0.2247615442930249
 33
0.0
 40
0.0
 40
0.0
 40
0.0
 40
0.0
 40
0.0564893895252332
 40
0.1729803407116367
 40
0.4586809953629531
 40
0.4586809953629531
 40
0.4586809953629531
 40
0.4586809953629531
 10
8.194917186010371
 20
4.775221425995994
 30
0.0
 10
8.178434797434526
 20
4.766116915938719
 30
0.0
 10
8.123453097292077
 20
4.745270094052969
 30
0.0
 10
7.968350348813095
 20
4.75349070354929
 30
0.0
 10
7.834537911045695
 20
4.760021619807638
 30
0.0
 10
7.741741024456963
 20
4.781426459922624
 30
0.0
 11
8.194917186010371
 21
4.775221425995994
 31
0.0
 11
8.142150073231235
 21
4.755055044617883
 31
0.0
 11
8.02575211785011
 21
4.750401262134055
 31
0.0
 11
7.741741024456963
 21
4.781426459922624
 31
0.0
  0
SPLINE
  5
AD
330
1F
100
AcDbEntity
  8
Vector
 62
     6
100
AcDbSpline
210
0.0
220
0.0
230
1.0
 70
     8
 71
     3
 72
    11
 73
     7
 74
     5
 42
0.0000000001
 43
0.0000000001
 44
0.0000000001
 12
0.1129608472085615
 22
-0.9935994399142565
 32
0.0
 13
0.9795767202864345
 23
-0.201070756384096
 33
0.0
 40
0.0
 40
0.0
 40
0.0
 40
0.0
 40
0.0744313342646203
 40
0.1951071722720515
 40
0.271841997040948
 40
0.8124923542754459
 40
0.8124923542754459
 40
0.8124923542754459
 40
0.8124923542754459
 10
7.232781010050238
 20
6.063844191951581
 30
0.0
 10
7.23558361890937
 20
6.039192547939115
 30
0.0
 10
7.280579956368681
 20
5.98197595843882
 30
0.0
 10
7.367910811054443
 20
5.953490327188045
 30
0.0
 10
7.605004773093427
 20
5.889811211793523
 30
0.0
 10
7.802469015165445
 20
5.82909964553387
 30
0.0
 10
7.979005183085931
 20
5.792863320111045
 30
0.0
 11
7.232781010050238
 21
6.063844191951581
 31
0.0
 11
7.272488359557122
 21
6.000889049861758
 31
0.0
 11
7.38202587091159
 21
5.950251203491028
 31
0.0
 11
7.455963679042675
 21
5.929722349137115
 31
0.0
 11
7.979005183085931
 21
5.792863320111045
 31
0.0
  0
SPLINE
  5
AE
330
1F
100
AcDbEntity
  8
Vector
 62
     6
100
AcDbSpline
210
0.0
220
0.0
230
1.0
 70
     8
 71
     3
 72
   100
 73
    96
 74
    94
 42
0.0000000001
 43
0.0000000001
 44
0.0000000001
 12
-0.9513990881900861
 22
0.3079606711758388
 32
0.0
 13
0.8985984502431934
 23
0.4387719512691432
 33
0.0
 40
0.0
 40
0.0
 40
0.0
 40
0.0
 40
0.2749205034940776
 40
0.7851668236815188
 40
0.9503154259592569
 40
1.299821053776538
 40
1.442868584074212
 40
1.651913581531946
 40
2.073998236991084
 40
2.233973969139543
 40
2.290204121322379
 40
2.429923066417368
 40
2.596606593063449
 40
2.705876676480068
 40
2.927109271492891
 40
3.029705478577667
 40
3.137459111782359
 40
3.243666612697925
 40
3.386596794693888
 40
3.53665952136412
 40
3.665531004469684
 40
3.830165107858705
 40
3.95177212373642
 40
4.050522750008711
 40
4.52258963052037
 40
4.5695662648298
 40
4.615110309818297
 40
4.67728746899393
 40
4.719980070092647
 40
5.06560235989804
 40
5.363639603661831
 40
5.853225332763688
 40
6.316274635262098
 40
6.456986833906762
 40
6.58439840170042
 40
6.72389614532265
 40
6.928445062840264
 40
6.975621740811998
 40
7.000042604849862
 40
7.042564222690996
 40
7.136466047414301
 40
7.198158031966807
 40
7.277901988640982
 40
7.456864497904911
 40
7.6251763978561
 40
7.797300330537267
 40
7.966623426768543
 40
8.119078432816438
 40
8.283086057697376
 40
8.343424720184716
 40
8.539589407391895
 40
8.646749258579346
 40
8.816887167250245
 40
8.990883459316039
 40
9.085575343769413
 40
9.156578011493927
 40
9.312568519753137
 40
9.447396577644619
 40
9.483047766846151
 40
9.516512608974837
 40
9.694859076538664
 40
9.780403405917834
 40
9.952479265277609
 40
10.03885643901427
 40
10.19085533714224
 40
10.41507033546068
 40
10.5177271551055
 40
10.62287131586904
 40
10.72938406097354
 40
10.87741559785231
 40
11.05082251938214
 40
11.06702788216521
 40
11.1390048509018
 40
11.30951826358608
 40
11.5023265705776
 40
11.65961573308041
 40
11.84482604660515
 40
12.03776023489319
 40
12.2372527204404
 40
12.92331680412343
 40
13.38033006264313
 40
13.69307462270572
 40
14.04312721284157
 40
14.50988528381272
 40
15.11452548236117
 40
15.77470205824024
 40
16.20363428650412
 40
16.64004097702655
 40
17.12836648358442
 40
17.60019592537891
 40
17.6140505158887
 40
17.63770740496631
 40
17.68166395966348
 40
17.85880522624859
 40
18.04393942530908
 40
18.04393942530908
 40
18.04393942530908
 40
18.04393942530908
 10
7.586658277316566
 20
5.116797189980662
 30
0.0
 10
7.499471905200224
 20
5.145018757572674
 30
0.0
 10
7.268400725613435
 20
5.272938354390614
 30
0.0
 10
6.954420417818175
 20
5.338854320584745
 30
0.0
 10
6.646789533934309
 20
5.489337521167469
 30
0.0
 10
6.422022457251387
 20
5.519346308708765
 30
0.0
 10
6.186007606228951
 20
5.463187572981106
 30
0.0
 10
6.024778556573419
 20
5.247169114731653
 30
0.0
 10
5.844701470400197
 20
5.055094710135993
 30
0.0
 10
5.775209169482971
 20
4.847946782334663
 30
0.0
 10
5.696650353199371
 20
4.758475307664341
 30
0.0
 10
5.597963048097279
 20
4.681681100195886
 30
0.0
 10
5.454699465497534
 20
4.667525655125974
 30
0.0
 10
5.318946482606606
 20
4.560424888712834
 30
0.0
 10
5.154897520701045
 20
4.60337661659957
 30
0.0
 10
5.040463722576213
 20
4.689108964127164
 30
0.0
 10
4.926841831253333
 20
4.697292423546801
 30
0.0
 10
4.851347385945021
 20
4.800118718530274
 30
0.0
 10
4.806215558791515
 20
4.926352574946673
 30
0.0
 10
4.815463424502905
 20
5.069711471954583
 30
0.0
 10
4.863282639459907
 20
5.213606995565436
 30
0.0
 10
4.985615870440643
 20
5.301338539152805
 30
0.0
 10
5.126317102800897
 20
5.299008015740869
 30
0.0
 10
5.257407106796434
 20
5.511094946429045
 30
0.0
 10
5.388885056649346
 20
5.629602829120166
 30
0.0
 10
5.516436528522802
 20
5.803515167565176
 30
0.0
 10
5.470325509970234
 20
5.850639068940726
 30
0.0
 10
5.417522351454281
 20
5.83842944645765
 30
0.0
 10
5.276981070440225
 20
5.79152263819497
 30
0.0
 10
5.051654929369263
 20
5.732681531220688
 30
0.0
 10
4.673281442209543
 20
5.728972411572733
 30
0.0
 10
4.254749793523576
 20
5.764765739685557
 30
0.0
 10
3.910040590267128
 20
5.8975528114954
 30
0.0
 10
3.663759461624732
 20
5.906907542462465
 30
0.0
 10
3.530707074625138
 20
5.862641666527462
 30
0.0
 10
3.418688411065976
 20
5.744188364392707
 30
0.0
 10
3.3468732143595
 20
5.649400156879554
 30
0.0
 10
3.259287726082246
 20
5.585791651234615
 30
0.0
 10
3.273420682097311
 20
5.545906230335385
 30
0.0
 10
3.311912002958358
 20
5.508711783598939
 30
0.0
 10
3.366010058560811
 20
5.471361617097976
 30
0.0
 10
3.440230233110136
 20
5.436651398470841
 30
0.0
 10
3.547480749842295
 20
5.471349008910804
 30
0.0
 10
3.691677495279025
 20
5.416136890450403
 30
0.0
 10
3.813499431096232
 20
5.284785186715498
 30
0.0
 10
3.851729426156359
 20
5.115369122315703
 30
0.0
 10
3.869831905126019
 20
4.949981408056654
 30
0.0
 10
3.803622194423441
 20
4.791052536010823
 30
0.0
 10
3.689181317743557
 20
4.724064435200713
 30
0.0
 10
3.5546888584817
 20
4.685128790112673
 30
0.0
 10
3.432697390631712
 20
4.677301344333939
 30
0.0
 10
3.2741572492897
 20
4.674240116605319
 30
0.0
 10
3.12884346514223
 20
4.723527637558657
 30
0.0
 10
3.002370282155196
 20
4.800629665645626
 30
0.0
 10
2.953538186820088
 20
4.924300464224895
 30
0.0
 10
2.834789831094711
 20
4.909600697163383
 30
0.0
 10
2.718523333870964
 20
4.9532080364218
 30
0.0
 10
2.635106179484046
 20
5.009149386702008
 30
0.0
 10
2.604112432542836
 20
5.097852083034226
 30
0.0
 10
2.536105966892944
 20
5.009446639619845
 30
0.0
 10
2.447991066997497
 20
4.99387675738863
 30
0.0
 10
2.314803674657571
 20
4.928109365109858
 30
0.0
 10
2.19596042918998
 20
4.922914391449666
 30
0.0
 10
2.062500480460877
 20
4.94683308496349
 30
0.0
 10
1.899280762692824
 20
4.940188584727141
 30
0.0
 10
1.788317794203859
 20
5.079797704287022
 30
0.0
 10
1.720069201541991
 20
5.208908027829684
 30
0.0
 10
1.734357579206251
 20
5.317939016796557
 30
0.0
 10
1.682227658415311
 20
5.429513449416955
 30
0.0
 10
1.699418691633097
 20
5.578770479460897
 30
0.0
 10
1.746000424110005
 20
5.677792403949283
 30
0.0
 10
1.802501821151693
 20
5.752186622236751
 30
0.0
 10
1.700144427099908
 20
5.818357597213968
 30
0.0
 10
1.663333115380198
 20
5.9483498481664
 30
0.0
 10
1.641559364844102
 20
6.132725205092804
 30
0.0
 10
1.741570996822142
 20
6.289998924454532
 30
0.0
 10
1.879696144598046
 20
6.40412815205601
 30
0.0
 10
2.048253313125803
 20
6.49904553889558
 30
0.0
 10
2.380805894215141
 20
6.636064422424807
 30
0.0
 10
2.773060044517915
 20
6.853631034436119
 30
0.0
 10
3.208638180475135
 20
7.066526967595531
 30
0.0
 10
3.554093715408021
 20
7.211861402818893
 30
0.0
 10
3.926726412766845
 20
7.279280178209885
 30
0.0
 10
4.399056108371422
 20
7.317118128132904
 30
0.0
 10
4.977214177173099
 20
7.317227259476211
 30
0.0
 10
5.537794535811637
 20
7.389068756806514
 30
0.0
 10
6.049059019880603
 20
7.385122998971705
 30
0.0
 10
6.492261025986469
 20
7.327138246837838
 30
0.0
 10
6.966370828546661
 20
7.20992324502917
 30
0.0
 10
7.232774513153231
 20
7.174042254186858
 30
0.0
 10
7.427283728387108
 20
7.07541796965303
 30
0.0
 10
7.416142128786043
 20
7.118590001934545
 30
0.0
 10
7.50422790987261
 20
7.152056097854551
 30
0.0
 10
7.598144274530604
 20
7.240969454184675
 30
0.0
 10
7.718989501115611
 20
7.276686946513066
 30
0.0
 10
7.774443269236535
 20
7.303764177769206
 30
0.0
 11
7.586658277316566
 21
5.116797189980662
 31
0.0
 11
7.334181028815251
 21
5.225592972208847
 31
0.0
 11
6.852058112286989
 21
5.392652244992813
 31
0.0
 11
6.699921525151154
 21
5.456905802784977
 31
0.0
 11
6.35279303400221
 21
5.497599715211897
 31
0.0
 11
6.215655871221095
 21
5.456905802784977
 31
0.0
 11
6.067804802645873
 21
5.30912260860083
 31
0.0
 11
5.821386457120226
 21
4.966436957657489
 31
0.0
 11
5.750675072692338
 21
4.822937358394192
 31
0.0
 11
5.714248011777492
 21
4.780101634429129
 31
0.0
 11
5.600681266715319
 21
4.698713809575284
 31
0.0
 11
5.442121674459187
 21
4.647310952079383
 31
0.0
 11
5.345697091153532
 21
4.595908122738912
 31
0.0
 11
5.127134681907449
 21
4.630176685017701
 31
0.0
 11
5.037138398321239
 21
4.679437730975465
 31
0.0
 11
4.934285515296146
 21
4.711564509871546
 31
0.0
 11
4.863574174625277
 21
4.79081057949811
 31
0.0
 11
4.816433251673352
 21
4.925743045230564
 31
0.0
 11
4.82286155139279
 21
5.075668022797419
 31
0.0
 11
4.870002474344715
 21
5.195607976695477
 31
0.0
 11
5.004996855967014
 21
5.28984653000101
 31
0.0
 11
5.122849163346828
 21
5.319831525514381
 31
0.0
 11
5.187132204298258
 21
5.394794028375521
 31
0.0
 11
5.484977035093471
 21
5.761039296528679
 31
0.0
 11
5.504261934251793
 21
5.803874992338311
 31
0.0
 11
5.474263173056392
 21
5.838143554617104
 31
0.0
 11
5.412122913263779
 21
5.836001771234393
 31
0.0
 11
5.371410290031299
 21
5.823151070938131
 31
0.0
 11
5.034995617162415
 21
5.743905029466997
 31
0.0
 11
4.737150830124221
 21
5.733196084398016
 31
0.0
 11
4.250742351278319
 21
5.788882508659341
 31
0.0
 11
3.800760977104282
 21
5.898113545643845
 31
0.0
 11
3.660048778459618
 21
5.898113545643845
 31
0.0
 11
3.540053733678
 21
5.855277849834212
 31
0.0
 11
3.437200850652907
 21
5.761039296528679
 31
0.0
 11
3.29577812555415
 21
5.613256102344532
 31
0.0
 11
3.265779364358749
 21
5.576845756683031
 31
0.0
 11
3.272207664078187
 21
5.553286139473218
 31
0.0
 11
3.300063687871791
 21
5.521159360577136
 31
0.0
 11
3.377203328262105
 21
5.467614719698527
 31
0.0
 11
3.435058113251109
 21
5.446196857715996
 31
0.0
 11
3.51434053480024
 21
5.454764019402265
 31
0.0
 11
3.685762021094397
 21
5.403361161906364
 31
0.0
 11
3.79932876615657
 21
5.27913761308746
 31
0.0
 11
3.8486124265103
 21
5.114220151841632
 31
0.0
 11
3.855040726229738
 21
4.945019123830384
 31
0.0
 11
3.792900422680112
 21
4.80580306317708
 31
0.0
 11
3.655763259898996
 21
4.715848076636966
 31
0.0
 11
3.597908518667011
 21
4.698713809575284
 31
0.0
 11
3.402916570896884
 21
4.677295947592757
 31
0.0
 11
3.29577812555415
 21
4.679437730975465
 31
0.0
 11
3.132927720138255
 21
4.728698805088658
 31
0.0
 11
2.995790557357132
 21
4.83578805869045
 31
0.0
 11
2.937935772368128
 21
4.910750561551594
 31
0.0
 11
2.867224431697259
 21
4.917175911699725
 31
0.0
 11
2.71723062572024
 21
4.960011607509358
 31
0.0
 11
2.620806042414585
 21
5.054250160814891
 31
0.0
 11
2.601521143256263
 21
5.084235156328261
 31
0.0
 11
2.575807900621484
 21
5.06281729434573
 31
0.0
 11
2.419385794925027
 21
4.977145902726466
 31
0.0
 11
2.340103373375896
 21
4.945019123830384
 31
0.0
 11
2.168681887081731
 21
4.930026611995984
 31
0.0
 11
2.082971122056143
 21
4.940735528909538
 31
0.0
 11
1.932199447574724
 21
4.960011607509358
 31
0.0
 11
1.771491823317646
 21
5.116361935224343
 31
0.0
 11
1.730779200085166
 21
5.210600488529877
 31
0.0
 11
1.72435090036572
 21
5.315547958748961
 31
0.0
 11
1.696494920329136
 21
5.418353645585334
 31
0.0
 11
1.705066001207399
 21
5.56613683976948
 31
0.0
 11
1.780062904195908
 21
5.722487167484466
 31
0.0
 11
1.78863398507417
 21
5.736240361859199
 31
0.0
 11
1.745778580682866
 21
5.794068541347805
 31
0.0
 11
1.668638940292552
 21
5.946135302297371
 31
0.0
 11
1.664353377974912
 21
6.138895975673857
 31
0.0
 11
1.741493062122245
 21
6.275970224789023
 31
0.0
 11
1.880773006062185
 21
6.398051990225219
 31
0.0
 11
2.047908973795721
 21
6.494432326913461
 31
0.0
 11
2.230044278369945
 21
6.575820179922736
 31
0.0
 11
2.842876101716896
 21
6.884237240431858
 31
0.0
 11
3.254325658665692
 21
7.083160292262057
 31
0.0
 11
3.545742189741467
 21
7.196674896011984
 31
0.0
 11
3.888585162329789
 21
7.267353832107705
 31
0.0
 11
4.353565917101526
 21
7.308047744534626
 31
0.0
 11
4.957826659570216
 21
7.329465606517157
 31
0.0
 11
5.615999023374108
 21
7.380868435857632
 31
0.0
 11
6.044909862009809
 21
7.376584869092209
 31
0.0
 11
6.477749118184348
 21
7.320898444830888
 31
0.0
 11
6.955586516151981
 21
7.220234541377223
 31
0.0
 11
7.407710671484842
 21
7.085302075644769
 31
0.0
 11
7.420886434611134
 21
7.081018508879346
 31
0.0
 11
7.42302921576995
 21
7.104578154244588
 31
0.0
 11
7.455170758124175
 21
7.134563149757958
 31
0.0
 11
7.605164520344175
 21
7.228801674908066
 31
0.0
 11
7.774443269236535
 21
7.303764177769206
 31
0.0
  0
SPLINE
  5
B0
330
1F
100
AcDbEntity
  8
Vector
 62
     6
100
AcDbSpline
210
0.0
220
0.0
230
1.0
 70
     8
 71
     3
 72
    11
 73
     7
 74
     5
 42
0.0000000001
 43
0.0000000001
 44
0.0000000001
 12
0.7018764945944503
 22
0.7122986637189536
 32
0.0
 13
0.8945092624813069
 23
0.4470494148694843
 33
0.0
 40
0.0
 40
0.0
 40
0.0
 40
0.0
 40
0.3894286947979641
 40
0.735922604903037
 40
1.018672819846679
 40
1.323845479299085
 40
1.323845479299085
 40
1.323845479299085
 40
1.323845479299085
 10
5.50312499565981
 20
5.810574238486797
 30
0.0
 10
5.594235278059572
 20
5.903037418126266
 30
0.0
 10
5.760486803413005
 20
6.083521366552258
 30
0.0
 10
6.010767969652262
 20
6.313854858952451
 30
0.0
 10
6.259016568427962
 20
6.502427273236807
 30
0.0
 10
6.426825300167633
 20
6.605088190318869
 30
0.0
 10
6.517818557013043
 20
6.650563943266323
 30
0.0
 11
5.50312499565981
 21
5.810574238486797
 31
0.0
 11
5.774263212003468
 21
6.090107377792364
 31
0.0
 11
6.030241284466242
 21
6.323630944393563
 31
0.0
 11
6.255745788334088
 21
6.494204690280767
 31
0.0
 11
6.517818557013043
 21
6.650563943266323
 31
0.0
  0
SPLINE
  5
B1
330
1F
100
AcDbEntity
  8
Vector
 62
     6
100
AcDbSpline
210
0.0
220
0.0
230
1.0
 70
     8
 71
     3
 72
    11
 73
     7
 74
     5
 42
0.0000000001
 43
0.0000000001
 44
0.0000000001
 12
0.882108241667837
 22
0.4710467598675069
 32
0.0
 13
0.6645343971864097
 23
0.7472576764116213
 33
0.0
 40
0.0
 40
0.0
 40
0.0
 40
0.0
 40
0.1039413787415683
 40
0.3372854572653303
 40
0.7027302118024729
 40
0.9530452704210604
 40
0.9530452704210604
 40
0.9530452704210604
 40
0.9530452704210604
 10
6.316221399900747
 20
5.492090683457224
 30
0.0
 10
6.346783915513499
 20
5.508411100014683
 30
0.0
 10
6.437987438091273
 20
5.575128303777177
 30
0.0
 10
6.655147639207989
 20
5.667086009591065
 30
0.0
 10
6.892934887319118
 20
5.819379284576401
 30
0.0
 10
7.064197659841249
 20
5.937462690015195
 30
0.0
 10
7.119645315369844
 20
5.999812639706583
 30
0.0
 11
6.316221399900747
 21
5.492090683457224
 31
0.0
 11
6.404233390246396
 21
5.547387155045342
 31
0.0
 11
6.611690312146613
 21
5.654209833057976
 31
0.0
 11
6.924761578704597
 21
5.842720444627968
 31
0.0
 11
7.119645315369844
 21
5.999812639706583
 31
0.0
  0
SPLINE
  5
B2
330
1F
100
AcDbEntity
  8
Vector
 62
     6
100
AcDbSpline
210
0.0
220
0.0
230
1.0
 70
     8
 71
     3
 72
    10
 73
     6
 74
     4
 42
0.0000000001
 43
0.0000000001
 44
0.0000000001
 12
0.4729856833279863
 22
0.8810701126282504
 32
0.0
 13
0.8547217650085217
 23
0.5190864132499688
 33
0.0
 40
0.0
 40
0.0
 40
0.0
 40
0.0
 40
0.0650404005661651
 40
0.1755371089810477
 40
0.312155246472811
 40
0.312155246472811
 40
0.312155246472811
 40
0.312155246472811
 10
4.813456986840584
 20
4.955595569456757
 30
0.0
 10
4.823711379609155
 20
4.97469728714083
 30
0.0
 10
4.851950229511423
 20
5.025860038732066
 30
0.0
 10
4.906234294549892
 20
5.115428052633935
 30
0.0
 10
4.971374826429189
 20
5.169268660325146
 30
0.0
 10
5.010298324965567
 20
5.192907533316976
 30
0.0
 11
4.813456986840584
 21
4.955595569456757
 31
0.0
 11
4.844951625444508
 21
5.012501996554366
 31
0.0
 11
4.906123848733614
 21
5.104520916719685
 31
0.0
 11
5.010298324965567
 21
5.192907533316976
 31
0.0
  0
SPLINE
  5
B3
330
1F
100
AcDbEntity
  8
Vector
 62
     6
100
AcDbSpline
210
0.0
220
0.0
230
1.0
 70
     8
 71
     3
 72
    10
 73
     6
 74
     4
 42
0.0000000001
 43
0.0000000001
 44
0.0000000001
 12
-0.0400607380338706
 22
0.9991972464274416
 32
0.0
 13
0.6141160803493087
 23
0.7892157118661549
 33
0.0
 40
0.0
 40
0.0
 40
0.0
 40
0.0
 40
0.060977780457504
 40
0.2056770949360011
 40
0.3166025053671749
 40
0.3166025053671749
 40
0.3166025053671749
 40
0.3166025053671749
 10
5.035181890786944
 20
4.680478806068919
 30
0.0
 10
5.034367619157346
 20
4.700788416177717
 30
0.0
 10
5.039534642701992
 20
4.76957984712436
 30
0.0
 10
5.065456131010259
 20
4.871802461857297
 30
0.0
 10
5.098138065845872
 20
4.952534057096122
 30
0.0
 10
5.120845091934249
 20
4.981715416015283
 30
0.0
 11
5.035181890786944
 21
4.680478806068919
 31
0.0
 11
5.038457366107031
 21
4.741368550451294
 31
0.0
 11
5.071987274877187
 21
4.882129471265319
 31
0.0
 11
5.120845091934249
 21
4.981715416015283
 31
0.0
  0
SPLINE
  5
B4
330
1F
100
AcDbEntity
  8
Vector
 62
     6
100
AcDbSpline
210
0.0
220
0.0
230
1.0
 70
     8
 71
     3
 72
    10
 73
     6
 74
     4
 42
0.0000000001
 43
0.0000000001
 44
0.0000000001
 12
-0.1505097279870727
 22
0.988608528074312
 32
0.0
 13
0.5736390824393061
 23
0.8191081754555932
 33
0.0
 40
0.0
 40
0.0
 40
0.0
 40
0.0
 40
0.0485077276764029
 40
0.2020001926984697
 40
0.3202301454334668
 40
0.3202301454334668
 40
0.3202301454334668
 40
0.3202301454334668
 10
5.457993920046803
 20
4.653956759226154
 30
0.0
 10
5.455560291747521
 20
4.669941810312287
 30
0.0
 10
5.455743062620219
 20
4.737754690971939
 30
0.0
 10
5.474545624318936
 20
4.843198250897476
 30
0.0
 10
5.508138543253726
 20
4.929265939001296
 30
0.0
 10
5.530745650454974
 20
4.96154697929095
 30
0.0
 11
5.457993920046803
 21
4.653956759226154
 31
0.0
 11
5.45632148307169
 21
4.702435647403301
 31
0.0
 11
5.482244496849524
 21
4.853723235047578
 31
0.0
 11
5.530745650454974
 21
4.96154697929095
 31
0.0
  0
SPLINE
  5
B5
330
1F
100
AcDbEntity
  8
Vector
 62
     6
100
AcDbSpline
210
0.0
220
0.0
230
1.0
 70
     8
 71
     3
 72
    18
 73
    14
 74
    12
 42
0.0000000001
 43
0.0000000001
 44
0.0000000001
 12
-0.9999082224812466
 22
-0.0135479376435608
 32
0.0
 13
-0.9995847539273643
 23
-0.0288152687992115
 33
0.0
 40
0.0
 40
0.0
 40
0.0
 40
0.0
 40
0.305518368565959
 40
0.5942937451439172
 40
0.7036798841521224
 40
0.8054547297675746
 40
0.9593197754530537
 40
1.147683132647264
 40
1.19309904531831
 40
1.24088972183948
 40
1.32583842643741
 40
1.380924052015414
 40
1.517189122663092
 40
1.517189122663092
 40
1.517189122663092
 40
1.517189122663092
 10
5.20914710379349
 20
5.427086079632015
 30
0.0
 10
5.107316994177438
 20
5.425706365029917
 30
0.0
 10
4.90652439800362
 20
5.435605514830877
 30
0.0
 10
4.681948627144354
 20
5.361006403062381
 30
0.0
 10
4.513231506319556
 20
5.348392662253727
 30
0.0
 10
4.395563395472024
 20
5.387297885751486
 30
0.0
 10
4.246463578556225
 20
5.372393553023892
 30
0.0
 10
4.117047866751571
 20
5.421504571568432
 30
0.0
 10
4.024779824610586
 20
5.379032473729449
 30
0.0
 10
3.96962036031357
 20
5.417402089442161
 30
0.0
 10
3.906563581930877
 20
5.385536969562129
 30
0.0
 10
3.814645599539033
 20
5.389693901156844
 30
0.0
 10
3.750776789240742
 20
5.390741453741
 30
0.0
 10
3.705373960203324
 20
5.389432615528114
 30
0.0
 11
5.20914710379349
 21
5.427086079632015
 31
0.0
 11
4.903808139840677
 21
5.416617525604468
 31
0.0
 11
4.620857935342691
 21
5.358907908621773
 31
0.0
 11
4.511519737204039
 21
5.35566972473024
 31
0.0
 11
4.411809877006326
 21
5.376067346635789
 31
0.0
 11
4.258183713472519
 21
5.384637886973379
 31
0.0
 11
4.070259574236132
 21
5.397493711557476
 31
0.0
 11
4.025958044165477
 21
5.387494733752575
 31
0.0
 11
3.980675831813194
 21
5.402774459104616
 31
0.0
 11
3.896694869212979
 21
5.389988516291992
 31
0.0
 11
3.841634494891003
 21
5.388320785844928
 31
0.0
 11
3.705373960203324
 21
5.389432615528114
 31
0.0
  0
SPLINE
  5
B7
330
1F
100
AcDbEntity
  8
Vector
 62
     6
100
AcDbSpline
210
0.0
220
0.0
230
1.0
 70
     8
 71
     3
 72
    12
 73
     8
 74
     6
 42
0.0000000001
 43
0.0000000001
 44
0.0000000001
 12
-0.9872527033558469
 22
-0.1591606098146539
 32
0.0
 13
-0.9945673245186039
 23
-0.104095326503671
 33
0.0
 40
0.0
 40
0.0
 40
0.0
 40
0.0
 40
0.0277946287432364
 40
0.0699612114935256
 40
0.2019239244141534
 40
0.3473473866968755
 40
0.4356187587711423
 40
0.4356187587711423
 40
0.4356187587711423
 40
0.4356187587711423
 10
3.85181474009672
 20
5.091159336188386
 30
0.0
 10
3.842667965974876
 20
5.089684732834938
 30
0.0
 10
3.817478210769716
 20
5.086222631703266
 30
0.0
 10
3.769896305738909
 20
5.142456832574125
 30
0.0
 10
3.68663569811993
 20
5.20234862311491
 30
0.0
 10
3.575983374936925
 20
5.26396253743032
 30
0.0
 10
3.49627399723262
 20
5.265704762068862
 30
0.0
 10
3.467010056447456
 20
5.262641882969862
 30
0.0
 11
3.85181474009672
 21
5.091159336188386
 31
0.0
 11
3.824026670951674
 21
5.090555514886617
 31
0.0
 11
3.790801748595178
 21
5.116519436686719
 31
0.0
 11
3.687502543989118
 21
5.198637838577692
 31
0.0
 11
3.555207051464122
 21
5.259019011470101
 31
0.0
 11
3.467010056447456
 21
5.262641882969862
 31
0.0
  0
SPLINE
  5
B8
330
1F
100
AcDbEntity
  8
Vector
 62
     6
100
AcDbSpline
210
0.0
220
0.0
230
1.0
 70
     8
 71
     3
 72
    11
 73
     7
 74
     5
 42
0.0000000001
 43
0.0000000001
 44
0.0000000001
 12
-0.5201213102891079
 22
0.8540923969824
 32
0.0
 13
-0.9989827143053041
 23
-0.0450947504617493
 33
0.0
 40
0.0
 40
0.0
 40
0.0
 40
0.0
 40
0.1035118338153385
 40
0.2315939830726274
 40
0.3275871847974801
 40
0.4085272794122538
 40
0.4085272794122538
 40
0.4085272794122538
 40
0.4085272794122538
 10
3.706833388016072
 20
4.775222974544519
 30
0.0
 10
3.688887151137917
 20
4.804692531297647
 30
0.0
 10
3.643763109719881
 20
4.867190046450353
 30
0.0
 10
3.581992131126333
 20
4.958457654857724
 30
0.0
 10
3.49597963627802
 20
5.017602935389771
 30
0.0
 10
3.435970109504728
 20
5.028832966558523
 30
0.0
 10
3.409017524366596
 20
5.027616308768855
 30
0.0
 11
3.706833388016072
 21
4.775222974544519
 31
0.0
 11
3.648840855935212
 21
4.860964247935253
 31
0.0
 11
3.569101086036646
 21
4.961197007325036
 31
0.0
 11
3.48875729426517
 21
5.01372861591615
 31
0.0
 11
3.409017524366596
 21
5.027616308768855
 31
0.0
  0
SPLINE
  5
B9
330
1F
100
AcDbEntity
  8
Vector
 62
     6
100
AcDbSpline
210
0.0
220
0.0
230
1.0
 70
     8
 71
     3
 72
    10
 73
     6
 74
     4
 42
0.0000000001
 43
0.0000000001
 44
0.0000000001
 12
0.0
 22
1.0
 32
0.0
 13
-0.5992269396419712
 23
0.8005792120754307
 33
0.0
 40
0.0
 40
0.0
 40
0.0
 40
0.0
 40
0.079212301995694
 40
0.1702983294385455
 40
0.2625144779354069
 40
0.2625144779354069
 40
0.2625144779354069
 40
0.2625144779354069
 10
3.370355836312697
 20
4.696123622851533
 30
0.0
 10
3.370355836312697
 20
4.722527723516765
 30
0.0
 10
3.378116801657377
 20
4.779121774606045
 30
0.0
 10
3.368768241522914
 20
4.866697040128545
 30
0.0
 10
3.346489090024627
 20
4.92571961565767
 30
0.0
 10
3.328069623208179
 20
4.950328392825753
 30
0.0
 11
3.370355836312697
 21
4.696123622851533
 31
0.0
 11
3.374584470750249
 21
4.775222974544519
 31
0.0
 11
3.364919026858267
 21
4.865794733883127
 31
0.0
 11
3.328069623208179
 21
4.950328392825753
 31
0.0
  0
SPLINE
  5
BA
330
1F
100
AcDbEntity
  8
Vector
 62
     6
100
AcDbSpline
210
0.0
220
0.0
230
1.0
 70
     8
 71
     3
 72
    10
 73
     6
 74
     4
 42
0.0000000001
 43
0.0000000001
 44
0.0000000001
 12
0.9174117279630776
 22
0.3979393438651175
 32
0.0
 13
0.0576228395140408
 23
0.998338423765378
 33
0.0
 40
0.0
 40
0.0
 40
0.0
 40
0.0
 40
0.0628806829396184
 40
0.1281017006599878
 40
0.1968389791104576
 40
0.1968389791104576
 40
0.1968389791104576
 40
0.1968389791104576
 10
2.956868077477487
 20
4.932772301146748
 30
0.0
 10
2.976097236141198
 20
4.941113200383675
 30
0.0
 10
3.010516311423245
 20
4.968900429325757
 30
0.0
 10
3.048170274894485
 20
5.022242652479039
 30
0.0
 10
3.066935137702062
 20
5.064916352793081
 30
0.0
 10
3.06825541675699
 20
5.087790708200468
 30
0.0
 11
2.956868077477487
 21
4.932772301146748
 31
0.0
 11
3.007498710108365
 21
4.970061968969751
 31
0.0
 11
3.045871383060081
 21
5.022800182089095
 31
0.0
 11
3.06825541675699
 21
5.087790708200468
 31
0.0
  0
SPLINE
  5
BB
330
1F
100
AcDbEntity
  8
Vector
 62
     6
100
AcDbSpline
210
0.0
220
0.0
230
1.0
 70
     8
 71
     3
 72
    10
 73
     6
 74
     4
 42
0.0000000001
 43
0.0000000001
 44
0.0000000001
 12
-0.03508255021081
 22
0.9993844178646703
 32
0.0
 13
0.7337172622144353
 23
0.6794549132418969
 33
0.0
 40
0.0
 40
0.0
 40
0.0
 40
0.0
 40
0.0458230856197866
 40
0.1431493988885217
 40
0.1883696416494507
 40
0.1883696416494507
 40
0.1883696416494507
 40
0.1883696416494507
 10
1.787270341373258
 20
5.162647262187295
 30
0.0
 10
1.786734477805901
 20
5.17791222143626
 30
0.0
 10
1.792455504071734
 20
5.226041011768423
 30
0.0
 10
1.82817586284569
 20
5.282121719065528
 30
0.0
 10
1.865504350530165
 20
5.311405394738162
 30
0.0
 10
1.876563974768572
 20
5.32164710011213
 30
0.0
 11
1.787270341373258
 21
5.162647262187295
 31
0.0
 11
1.792592463684187
 21
5.208160229458457
 31
0.0
 11
1.842857112618666
 21
5.291502153614175
 31
0.0
 11
1.876563974768572
 21
5.32164710011213
 31
0.0
  0
SPLINE
  5
BC
330
1F
100
AcDbEntity
  8
Vector
 62
     6
100
AcDbSpline
210
0.0
220
0.0
230
1.0
 70
     8
 71
     3
 72
    10
 73
     6
 74
     4
 42
0.0000000001
 43
0.0000000001
 44
0.0000000001
 12
-0.5856685479067659
 22
0.8105506473952013
 32
0.0
 13
0.0696302277993072
 23
0.9975728702087966
 33
0.0
 40
0.0
 40
0.0
 40
0.0
 40
0.0
 40
0.0406548191309383
 40
0.0881099078950589
 40
0.2147333732150462
 40
0.2147333732150462
 40
0.2147333732150462
 40
0.2147333732150462
 10
2.075553957492751
 20
4.975392326380443
 30
0.0
 10
2.067617207864141
 20
4.986376589702549
 30
0.0
 10
2.057234483859309
 20
5.014582862831334
 30
0.0
 10
2.042677615501188
 20
5.084549789681344
 30
0.0
 10
2.044098612542404
 20
5.143416170220558
 30
0.0
 10
2.047037552787394
 20
5.185521548132239
 30
0.0
 11
2.075553957492751
 21
4.975392326380443
 31
0.0
 11
2.058974642255442
 21
5.012512949015729
 31
0.0
 11
2.049027053113064
 21
5.058913713232119
 31
0.0
 11
2.047037552787394
 21
5.185521548132239
 31
0.0
  0
SPLINE
  5
BE
330
1F
100
AcDbEntity
  8
Vector
 62
     6
100
AcDbSpline
210
0.0
220
0.0
230
1.0
 70
     8
 71
     3
 72
    11
 73
     7
 74
     5
 42
0.0000000001
 43
0.0000000001
 44
0.0000000001
 12
0.9361944963663491
 22
-0.3514823821663866
 32
0.0
 13
0.9957445692605151
 23
0.0921561326672904
 33
0.0
 40
0.0
 40
0.0
 40
0.0
 40
0.0
 40
0.0497598356744644
 40
0.1224345727000188
 40
0.2246188560400919
 40
0.344753375631346
 40
0.344753375631346
 40
0.344753375631346
 40
0.344753375631346
 10
2.204733862840491
 20
5.22422582910757
 30
0.0
 10
2.220262157606667
 20
5.218395927247881
 30
0.0
 10
2.257852989661107
 20
5.202076122051865
 30
0.0
 10
2.332488542545871
 20
5.190245251642433
 30
0.0
 10
2.43043237835088
 20
5.185794071598641
 30
0.0
 10
2.504851590144676
 20
5.180511919838299
 30
0.0
 10
2.544726021965914
 20
5.184202297413424
 30
0.0
 11
2.204733862840491
 21
5.22422582910757
 31
0.0
 11
2.251328085612755
 21
5.206761017325064
 31
0.0
 11
2.322675478293518
 21
5.192934703304675
 31
0.0
 11
2.424600318729325
 21
5.185657707780443
 31
0.0
 11
2.544726021965914
 21
5.184202297413424
 31
0.0
  0
SPLINE
  5
BF
330
1F
100
AcDbEntity
  8
Vector
 62
     6
100
AcDbSpline
210
0.0
220
0.0
230
1.0
 70
     8
 71
     3
 72
    11
 73
     7
 74
     5
 42
0.0000000001
 43
0.0000000001
 44
0.0000000001
 12
0.5797004802697831
 22
-0.8148296467207012
 32
0.0
 13
0.9242807793357227
 23
0.3817132967955783
 33
0.0
 40
0.0
 40
0.0
 40
0.0
 40
0.0
 40
0.0377362391476639
 40
0.1003473993928525
 40
0.2383314859405828
 40
0.3364757317532403
 40
0.3364757317532403
 40
0.3364757317532403
 40
0.3364757317532403
 10
2.153458558067228
 20
5.498448010092108
 30
0.0
 10
2.160750463386387
 20
5.488198474621022
 30
0.0
 10
2.189060477084582
 20
5.467167869931696
 30
0.0
 10
2.269874445503078
 20
5.457533288060098
 30
0.0
 10
2.367637020739185
 20
5.462943510101911
 30
0.0
 10
2.448988397501372
 20
5.463926058632659
 30
0.0
 10
2.479226010837052
 20
5.476413713176214
 30
0.0
 11
2.153458558067228
 21
5.498448010092108
 31
0.0
 11
2.182851109538837
 21
5.474781543034296
 31
0.0
 11
2.244085599064185
 21
5.461724181898951
 31
0.0
 11
2.382067272287727
 21
5.462540266969909
 31
0.0
 11
2.479226010837052
 21
5.476413713176214
 31
0.0
  0
SPLINE
  5
C0
330
1F
100
AcDbEntity
  8
Vector
 62
     6
100
AcDbSpline
210
0.0
220
0.0
230
1.0
 70
     8
 71
     3
 72
    22
 73
    18
 74
    16
 42
0.0000000001
 43
0.0000000001
 44
0.0000000001
 12
-0.5425453890615097
 22
0.8400264881586148
 32
0.0
 13
0.3157863599168445
 23
0.9488303193355854
 33
0.0
 40
0.0
 40
0.0
 40
0.0
 40
0.0
 40
0.0379943601951974
 40
0.0706406212476092
 40
0.1860181641037034
 40
0.3228374360068248
 40
0.4458559138169469
 40
0.6101271110896425
 40
0.6974245944695184
 40
0.7514781340130594
 40
0.8192009288457706
 40
0.8877800338867722
 40
0.983648698824318
 40
1.122899545766532
 40
1.513763862275915
 40
1.702607897286516
 40
1.757702165174296
 40
1.757702165174296
 40
1.757702165174296
 40
1.757702165174296
 10
2.599850894132039
 20
5.084499535794066
 30
0.0
 10
2.59297967248729
 20
5.095138292115601
 30
0.0
 10
2.585657179740707
 20
5.118858000387634
 30
0.0
 10
2.592560868408943
 20
5.180753752572727
 30
0.0
 10
2.58249574499395
 20
5.275422607472693
 30
0.0
 10
2.564155499439472
 20
5.401014182607665
 30
0.0
 10
2.492549401712381
 20
5.523977483514121
 30
0.0
 10
2.4252505182366
 20
5.632422257457744
 30
0.0
 10
2.339256599578357
 20
5.688995529360392
 30
0.0
 10
2.274189027958514
 20
5.717633073496347
 30
0.0
 10
2.249407814557764
 20
5.791021478829069
 30
0.0
 10
2.312205335612738
 20
5.851560092477392
 30
0.0
 10
2.407206509583139
 20
5.882378043862759
 30
0.0
 10
2.602223719589306
 20
5.961464982753503
 30
0.0
 10
2.793886030389382
 20
6.104744574335961
 30
0.0
 10
2.952906448929934
 20
6.255104447032797
 30
0.0
 10
2.980032076925878
 20
6.332585994305516
 30
0.0
 10
2.985831416362067
 20
6.350011031570023
 30
0.0
 11
2.599850894132039
 21
5.084499535794066
 31
0.0
 11
2.587979527704632
 21
5.12059166881206
 31
0.0
 11
2.588968830118759
 21
5.153222936661098
 31
0.0
 11
2.582538517576502
 21
5.268421150519294
 31
0.0
 11
2.554838662579221
 21
5.402407087084405
 31
0.0
 11
2.498944367013123
 21
5.511994374695191
 31
0.0
 11
2.400510986536978
 21
5.643508236555618
 31
0.0
 11
2.32829357307245
 21
5.692554090579715
 31
0.0
 11
2.282786712191075
 21
5.721724465104365
 31
0.0
 11
2.263001101478735
 21
5.786492563337162
 31
0.0
 11
2.30603477196032
 21
5.839889162977094
 31
0.0
 11
2.393586044666164
 21
5.878947780009628
 31
0.0
 11
2.52219242678236
 21
5.93234437964956
 31
0.0
 11
2.843503708622371
 21
6.154906672239018
 31
0.0
 11
2.966045849406739
 21
6.298592069169497
 31
0.0
 11
2.985831416362067
 21
6.350011031570023
 31
0.0
  0
SPLINE
  5
C2
330
1F
100
AcDbEntity
  8
Vector
 62
     6
100
AcDbSpline
210
0.0
220
0.0
230
1.0
 70
     8
 71
     3
 72
    11
 73
     7
 74
     5
 42
0.0000000001
 43
0.0000000001
 44
0.0000000001
 12
0.4437349519145966
 22
0.8961580733605821
 32
0.0
 13
0.9078042788612499
 23
0.4193940763544547
 33
0.0
 40
0.0
 40
0.0
 40
0.0
 40
0.0
 40
0.0796043900337662
 40
0.2677427998235622
 40
0.5988794430092321
 40
1.034731130973299
 40
1.034731130973299
 40
1.034731130973299
 40
1.034731130973299
 10
1.785472321757232
 20
5.756825048426176
 30
0.0
 10
1.797246738485174
 20
5.780604420694077
 30
0.0
 10
1.819717480204153
 20
5.867818453137265
 30
0.0
 10
1.921737009343175
 20
6.042150573689976
 30
0.0
 10
2.139525305674386
 20
6.27901773852202
 30
0.0
 10
2.364941079301434
 20
6.408256908788341
 30
0.0
 10
2.496830421728994
 20
6.469188114155414
 30
0.0
 11
1.785472321757232
 21
5.756825048426176
 31
0.0
 11
1.812654049907429
 21
5.831644915890752
 31
0.0
 11
1.901308174488441
 21
5.997586192952873
 31
0.0
 11
2.125066160750144
 21
6.241684206145077
 31
0.0
 11
2.496830421728994
 21
6.469188114155414
 31
0.0
  0
SPLINE
  5
C3
330
1F
100
AcDbEntity
  8
Vector
 62
     6
100
AcDbSpline
210
0.0
220
0.0
230
1.0
 70
     8
 71
     3
 72
    12
 73
     8
 74
     6
 42
0.0000000001
 43
0.0000000001
 44
0.0000000001
 12
0.4612970141767383
 22
0.8872457746935888
 32
0.0
 13
0.1985718469720973
 23
0.9800863337431504
 33
0.0
 40
0.0
 40
0.0
 40
0.0
 40
0.0
 40
0.0321689273971899
 40
0.0690981710046631
 40
0.4536042577605856
 40
0.6321533338257
 40
0.7809056971294655
 40
0.7809056971294655
 40
0.7809056971294655
 40
0.7809056971294655
 10
3.65815541230193
 20
5.898362664867853
 30
0.0
 10
3.663101889021127
 20
5.907876579837714
 30
0.0
 10
3.675009658457685
 20
5.92817948971764
 30
0.0
 10
3.799383838642072
 20
6.017109817566256
 30
0.0
 10
3.936789970593439
 20
6.166199998604554
 30
0.0
 10
4.058119963315006
 20
6.372079549604469
 30
0.0
 10
4.087764500266375
 20
6.478132726684932
 30
0.0
 10
4.09761051077394
 20
6.526729446146937
 30
0.0
 11
3.65815541230193
 21
5.898362664867853
 31
0.0
 11
3.675714797222617
 21
5.925316475193906
 31
0.0
 11
3.703935229459972
 21
5.94913613593366
 31
0.0
 11
3.968580254426882
 21
6.228076885041094
 31
0.0
 11
4.055418375257573
 21
6.384086222371589
 31
0.0
 11
4.09761051077394
 21
6.526729446146937
 31
0.0
  0
ENDSEC
  0
SECTION
  2
OBJECTS
  0
DICTIONARY
  5
C
330
0
100
AcDbDictionary
281
     1
  3
ACAD_COLOR
350
73
  3
ACAD_GROUP
350
D
  3
ACAD_IMAGE_DICT
350
89
  3
ACAD_IMAGE_VARS
350
8A
  3
ACAD_LAYOUT
350
1A
  3
ACAD_MATERIAL
350
72
  3
ACAD_MLINESTYLE
350
17
  3
ACAD_PLOTSETTINGS
350
19
  3
ACAD_PLOTSTYLENAME
350
E
  3
ACDBHEADERROUNDTRIPXREC
350
DA
  3
AcDbVariableDictionary
350
66
  0
IMAGEDEF_REACTOR
  5
8C
330
8D
100
AcDbRasterImageDefReactor
 90
        2
330
8D
  0
DICTIONARY
  5
73
102
{ACAD_REACTORS
330
C
102
}
330
C
100
AcDbDictionary
281
     1
  0
DICTIONARY
  5
D
102
{ACAD_REACTORS
330
C
102
}
330
C
100
AcDbDictionary
281
     1
  0
DICTIONARY
  5
89
102
{ACAD_REACTORS
330
C
102
}
330
C
100
AcDbDictionary
281
     1
  3
self-portrait
350
8B
  0
RASTERVARIABLES
  5
8A
102
{ACAD_REACTORS
330
C
102
}
330
C
100
AcDbRasterVariables
 90
        0
 70
     1
 71
     1
 72
     5
  0
DICTIONARY
  5
1A
102
{ACAD_REACTORS
330
C
102
}
330
C
100
AcDbDictionary
281
     1
  3
Layout1
350
59
  3
Layout2
350
5E
  3
Model
350
22
  0
DICTIONARY
  5
72
102
{ACAD_REACTORS
330
C
102
}
330
C
100
AcDbDictionary
281
     1
  0
DICTIONARY
  5
17
102
{ACAD_REACTORS
330
C
102
}
330
C
100
AcDbDictionary
281
     1
  3
Standard
350
18
  0
DICTIONARY
  5
19
102
{ACAD_REACTORS
330
C
102
}
330
C
100
AcDbDictionary
281
     1
  0
ACDBDICTIONARYWDFLT
  5
E
102
{ACAD_REACTORS
330
C
102
}
330
C
100
AcDbDictionary
281
     1
  3
Normal
350
F
100
AcDbDictionaryWithDefault
340
F
  0
DICTIONARY
  5
DA
102
{ACAD_REACTORS
330
C
102
}
330
C
100
AcDbDictionary
281
     1
  3
COLORDICT
350
DC
  3
MATERIALDICT
350
DB
  0
DICTIONARY
  5
66
102
{ACAD_REACTORS
330
C
102
}
330
C
100
AcDbDictionary
281
     1
  3
DIMASSOC
350
67
  3
HIDETEXT
350
6B
  3
PROJECTNAME
350
D8
  3
SORTENTS
350
D7
  0
IMAGEDEF
  5
8B
102
{ACAD_REACTORS
330
89
330
8C
102
}
330
89
100
AcDbRasterImageDef
 90
        0
  1
C:\Users\Skylab 1\Desktop\self-portrait.png
 10
800.0
 20
342.0
 11
0.2646202635017971
 21
0.2646202635017971
280
     1
281
     2
  0
LAYOUT
  5
59
102
{ACAD_XDICTIONARY
360
DF
102
}
102
{ACAD_REACTORS
330
1A
102
}
330
1A
100
AcDbPlotSettings
  1

  2
None
  4

  6

 40
0.0
 41
0.0
 42
0.0
 43
0.0
 44
0.0
 45
0.0
 46
0.0
 47
0.0
 48
0.0
 49
0.0
140
0.0
141
0.0
142
1.0
143
1.0
 70
   688
 72
     0
 73
     0
 74
     5
  7

 75
    16
147
1.0
148
0.0
149
0.0
100
AcDbLayout
  1
Layout1
 70
     1
 71
     1
 10
0.0
 20
0.0
 11
12.0
 21
9.0
 12
0.0
 22
0.0
 32
0.0
 14
0.0
 24
0.0
 34
0.0
 15
0.0
 25
0.0
 35
0.0
146
0.0
 13
0.0
 23
0.0
 33
0.0
 16
1.0
 26
0.0
 36
0.0
 17
0.0
 27
1.0
 37
0.0
 76
     0
330
58
  0
LAYOUT
  5
5E
102
{ACAD_XDICTIONARY
360
E1
102
}
102
{ACAD_REACTORS
330
1A
102
}
330
1A
100
AcDbPlotSettings
  1

  2
None
  4

  6

 40
0.0
 41
0.0
 42
0.0
 43
0.0
 44
0.0
 45
0.0
 46
0.0
 47
0.0
 48
0.0
 49
0.0
140
0.0
141
0.0
142
1.0
143
1.0
 70
   688
 72
     0
 73
     0
 74
     5
  7

 75
    16
147
1.0
148
0.0
149
0.0
100
AcDbLayout
  1
Layout2
 70
     1
 71
     2
 10
0.0
 20
0.0
 11
12.0
 21
9.0
 12
0.0
 22
0.0
 32
0.0
 14
0.0
 24
0.0
 34
0.0
 15
0.0
 25
0.0
 35
0.0
146
0.0
 13
0.0
 23
0.0
 33
0.0
 16
1.0
 26
0.0
 36
0.0
 17
0.0
 27
1.0
 37
0.0
 76
     0
330
5D
  0
LAYOUT
  5
22
102
{ACAD_XDICTIONARY
360
DD
102
}
102
{ACAD_REACTORS
330
1A
102
}
330
1A
100
AcDbPlotSettings
  1

  2
none_device
  4
ANSI_A_(8.50_x_11.00_Inches)
  6

 40
6.349999904632568
 41
19.04999923706055
 42
6.350006103515625
 43
19.04998779296875
 44
215.8999938964844
 45
279.3999938964844
 46
0.0
 47
0.0
 48
0.0
 49
0.0
140
0.0
141
0.0
142
1.0
143
2.584895464708373
 70
 11952
 72
     0
 73
     1
 74
     0
  7

 75
     0
147
0.3868628397755418
148
0.0
149
0.0
100
AcDbLayout
  1
Model
 70
     1
 71
     0
 10
0.0
 20
0.0
 11
12.0
 21
9.0
 12
0.0
 22
0.0
 32
0.0
 14
0.0
 24
0.0
 34
0.0
 15
0.0
 25
0.0
 35
0.0
146
0.0
 13
0.0
 23
0.0
 33
0.0
 16
1.0
 26
0.0
 36
0.0
 17
0.0
 27
1.0
 37
0.0
 76
     0
330
1F
  0
MLINESTYLE
  5
18
102
{ACAD_REACTORS
330
17
102
}
330
17
100
AcDbMlineStyle
  2
STANDARD
 70
     0
  3

 62
   256
 51
90.0
 52
90.0
 71
     2
 49
0.5
 62
   256
  6
BYLAYER
 49
-0.5
 62
   256
  6
BYLAYER
  0
ACDBPLACEHOLDER
  5
F
102
{ACAD_REACTORS
330
E
102
}
330
E
  0
XRECORD
  5
DC
102
{ACAD_REACTORS
330
DA
102
}
330
DA
100
AcDbXrecord
280
     1
340
73
  0
XRECORD
  5
DB
102
{ACAD_REACTORS
330
DA
102
}
330
DA
100
AcDbXrecord
280
     1
340
72
  0
DICTIONARYVAR
  5
67
102
{ACAD_REACTORS
330
66
102
}
330
66
100
DictionaryVariables
280
     0
  1
2
  0
DICTIONARYVAR
  5
6B
102
{ACAD_REACTORS
330
66
102
}
330
66
100
DictionaryVariables
280
     0
  1
1
  0
DICTIONARYVAR
  5
D8
102
{ACAD_REACTORS
330
66
102
}
330
66
100
DictionaryVariables
280
     0
  1

  0
DICTIONARYVAR
  5
D7
102
{ACAD_REACTORS
330
66
102
}
330
66
100
DictionaryVariables
280
     0
  1
1
  0
DICTIONARY
  5
DF
330
59
100
AcDbDictionary
280
     1
281
     1
  3
ACAD_XREC_ROUNDTRIP
360
E0
  0
DICTIONARY
  5
E1
330
5E
100
AcDbDictionary
280
     1
281
     1
  3
ACAD_XREC_ROUNDTRIP
360
E2
  0
DICTIONARY
  5
DD
330
22
100
AcDbDictionary
280
     1
281
     1
  3
ACAD_XREC_ROUNDTRIP
360
DE
  0
XRECORD
  5
E0
102
{ACAD_REACTORS
330
DF
102
}
330
DF
100
AcDbXrecord
280
     1
102
SHADEPLOT
 70
     0
102
SHADEPLOTRESLEVEL
 70
     2
102
SHADEPLOTCUSTOMDPI
 70
   300
  0
XRECORD
  5
E2
102
{ACAD_REACTORS
330
E1
102
}
330
E1
100
AcDbXrecord
280
     1
102
SHADEPLOT
 70
     0
102
SHADEPLOTRESLEVEL
 70
     2
102
SHADEPLOTCUSTOMDPI
 70
   300
  0
XRECORD
  5
DE
102
{ACAD_REACTORS
330
DD
102
}
330
DD
100
AcDbXrecord
280
     1
102
SHADEPLOT
 70
     0
102
SHADEPLOTRESLEVEL
 70
     2
102
SHADEPLOTCUSTOMDPI
 70
   300
  0
ENDSEC
  0
EOF
