  0
SECTION
  2
HEADER
  9
$ACADVER
  1
AC1015
  9
$ACADMAINTVER
 70
    20
  9
$DWGCODEPAGE
  3
ANSI_1252
  9
$INSBASE
 10
0.0
 20
0.0
 30
0.0
  9
$EXTMIN
 10
-0.4261096833698339
 20
0.1973453940424743
 30
0.0
  9
$EXTMAX
 10
10.97268571351134
 20
8.905434469747996
 30
0.0
  9
$LIMMIN
 10
0.0
 20
0.0
  9
$LIMMAX
 10
12.0
 20
12.0
  9
$ORTHOMODE
 70
     0
  9
$REGENMODE
 70
     1
  9
$FILLMODE
 70
     1
  9
$QTEXTMODE
 70
     0
  9
$MIRRTEXT
 70
     0
  9
$LTSCALE
 40
1.0
  9
$ATTMODE
 70
     1
  9
$TEXTSIZE
 40
0.2
  9
$TRACEWID
 40
0.05
  9
$TEXTSTYLE
  7
Standard
  9
$CLAYER
  8
Layer1
  9
$CELTYPE
  6
ByLayer
  9
$CECOLOR
 62
   256
  9
$CELTSCALE
 40
1.0
  9
$DISPSILH
 70
     0
  9
$DIMSCALE
 40
1.0
  9
$DIMASZ
 40
0.18
  9
$DIMEXO
 40
0.0625
  9
$DIMDLI
 40
0.38
  9
$DIMRND
 40
0.0
  9
$DIMDLE
 40
0.0
  9
$DIMEXE
 40
0.18
  9
$DIMTP
 40
0.0
  9
$DIMTM
 40
0.0
  9
$DIMTXT
 40
0.18
  9
$DIMCEN
 40
0.09
  9
$DIMTSZ
 40
0.0
  9
$DIMTOL
 70
     0
  9
$DIMLIM
 70
     0
  9
$DIMTIH
 70
     1
  9
$DIMTOH
 70
     1
  9
$DIMSE1
 70
     0
  9
$DIMSE2
 70
     0
  9
$DIMTAD
 70
     0
  9
$DIMZIN
 70
     0
  9
$DIMBLK
  1

  9
$DIMASO
 70
     1
  9
$DIMSHO
 70
     1
  9
$DIMPOST
  1

  9
$DIMAPOST
  1

  9
$DIMALT
 70
     0
  9
$DIMALTD
 70
     2
  9
$DIMALTF
 40
25.4
  9
$DIMLFAC
 40
1.0
  9
$DIMTOFL
 70
     0
  9
$DIMTVP
 40
0.0
  9
$DIMTIX
 70
     0
  9
$DIMSOXD
 70
     0
  9
$DIMSAH
 70
     0
  9
$DIMBLK1
  1

  9
$DIMBLK2
  1

  9
$DIMSTYLE
  2
Standard
  9
$DIMCLRD
 70
     0
  9
$DIMCLRE
 70
     0
  9
$DIMCLRT
 70
     0
  9
$DIMTFAC
 40
1.0
  9
$DIMGAP
 40
0.09
  9
$DIMJUST
 70
     0
  9
$DIMSD1
 70
     0
  9
$DIMSD2
 70
     0
  9
$DIMTOLJ
 70
     1
  9
$DIMTZIN
 70
     0
  9
$DIMALTZ
 70
     0
  9
$DIMALTTZ
 70
     0
  9
$DIMUPT
 70
     0
  9
$DIMDEC
 70
     4
  9
$DIMTDEC
 70
     4
  9
$DIMALTU
 70
     2
  9
$DIMALTTD
 70
     2
  9
$DIMTXSTY
  7
Standard
  9
$DIMAUNIT
 70
     0
  9
$DIMADEC
 70
     0
  9
$DIMALTRND
 40
0.0
  9
$DIMAZIN
 70
     0
  9
$DIMDSEP
 70
    46
  9
$DIMATFIT
 70
     3
  9
$DIMFRAC
 70
     0
  9
$DIMLDRBLK
  1

  9
$DIMLUNIT
 70
     2
  9
$DIMLWD
 70
    -2
  9
$DIMLWE
 70
    -2
  9
$DIMTMOVE
 70
     0
  9
$LUNITS
 70
     2
  9
$LUPREC
 70
     4
  9
$SKETCHINC
 40
0.1
  9
$FILLETRAD
 40
0.0
  9
$AUNITS
 70
     0
  9
$AUPREC
 70
     0
  9
$MENU
  1
.
  9
$ELEVATION
 40
0.0
  9
$PELEVATION
 40
0.0
  9
$THICKNESS
 40
0.0
  9
$LIMCHECK
 70
     0
  9
$CHAMFERA
 40
0.0
  9
$CHAMFERB
 40
0.0
  9
$CHAMFERC
 40
0.0
  9
$CHAMFERD
 40
0.0
  9
$SKPOLY
 70
     0
  9
$TDCREATE
 40
2457933.529254456
  9
$TDUCREATE
 40
2457933.737587790
  9
$TDUPDATE
 40
2457945.453425648
  9
$TDUUPDATE
 40
2457945.661758982
  9
$TDINDWG
 40
0.0329680093
  9
$TDUSRTIMER
 40
0.0329680093
  9
$USRTIMER
 70
     1
  9
$ANGBASE
 50
0.0
  9
$ANGDIR
 70
     0
  9
$PDMODE
 70
     0
  9
$PDSIZE
 40
0.0
  9
$PLINEWID
 40
0.0
  9
$SPLFRAME
 70
     0
  9
$SPLINETYPE
 70
     6
  9
$SPLINESEGS
 70
     8
  9
$HANDSEED
  5
E6
  9
$SURFTAB1
 70
     6
  9
$SURFTAB2
 70
     6
  9
$SURFTYPE
 70
     6
  9
$SURFU
 70
     6
  9
$SURFV
 70
     6
  9
$UCSBASE
  2

  9
$UCSNAME
  2

  9
$UCSORG
 10
0.0
 20
0.0
 30
0.0
  9
$UCSXDIR
 10
1.0
 20
0.0
 30
0.0
  9
$UCSYDIR
 10
0.0
 20
1.0
 30
0.0
  9
$UCSORTHOREF
  2

  9
$UCSORTHOVIEW
 70
     0
  9
$UCSORGTOP
 10
0.0
 20
0.0
 30
0.0
  9
$UCSORGBOTTOM
 10
0.0
 20
0.0
 30
0.0
  9
$UCSORGLEFT
 10
0.0
 20
0.0
 30
0.0
  9
$UCSORGRIGHT
 10
0.0
 20
0.0
 30
0.0
  9
$UCSORGFRONT
 10
0.0
 20
0.0
 30
0.0
  9
$UCSORGBACK
 10
0.0
 20
0.0
 30
0.0
  9
$PUCSBASE
  2

  9
$PUCSNAME
  2

  9
$PUCSORG
 10
0.0
 20
0.0
 30
0.0
  9
$PUCSXDIR
 10
1.0
 20
0.0
 30
0.0
  9
$PUCSYDIR
 10
0.0
 20
1.0
 30
0.0
  9
$PUCSORTHOREF
  2

  9
$PUCSORTHOVIEW
 70
     0
  9
$PUCSORGTOP
 10
0.0
 20
0.0
 30
0.0
  9
$PUCSORGBOTTOM
 10
0.0
 20
0.0
 30
0.0
  9
$PUCSORGLEFT
 10
0.0
 20
0.0
 30
0.0
  9
$PUCSORGRIGHT
 10
0.0
 20
0.0
 30
0.0
  9
$PUCSORGFRONT
 10
0.0
 20
0.0
 30
0.0
  9
$PUCSORGBACK
 10
0.0
 20
0.0
 30
0.0
  9
$USERI1
 70
     0
  9
$USERI2
 70
     0
  9
$USERI3
 70
     0
  9
$USERI4
 70
     0
  9
$USERI5
 70
     0
  9
$USERR1
 40
0.0
  9
$USERR2
 40
0.0
  9
$USERR3
 40
0.0
  9
$USERR4
 40
0.0
  9
$USERR5
 40
0.0
  9
$WORLDVIEW
 70
     1
  9
$SHADEDGE
 70
     3
  9
$SHADEDIF
 70
    70
  9
$TILEMODE
 70
     1
  9
$MAXACTVP
 70
    64
  9
$PINSBASE
 10
0.0
 20
0.0
 30
0.0
  9
$PLIMCHECK
 70
     0
  9
$PEXTMIN
 10
0.0
 20
0.0
 30
0.0
  9
$PEXTMAX
 10
0.0
 20
0.0
 30
0.0
  9
$PLIMMIN
 10
0.0
 20
0.0
  9
$PLIMMAX
 10
12.0
 20
9.0
  9
$UNITMODE
 70
     0
  9
$VISRETAIN
 70
     1
  9
$PLINEGEN
 70
     0
  9
$PSLTSCALE
 70
     1
  9
$TREEDEPTH
 70
  3020
  9
$CMLSTYLE
  2
Standard
  9
$CMLJUST
 70
     0
  9
$CMLSCALE
 40
1.0
  9
$PROXYGRAPHICS
 70
     1
  9
$MEASUREMENT
 70
     0
  9
$CELWEIGHT
370
    -1
  9
$ENDCAPS
280
     0
  9
$JOINSTYLE
280
     0
  9
$LWDISPLAY
290
     0
  9
$INSUNITS
 70
     1
  9
$HYPERLINKBASE
  1

  9
$STYLESHEET
  1

  9
$XEDIT
290
     1
  9
$CEPSNTYPE
380
     0
  9
$PSTYLEMODE
290
     1
  9
$FINGERPRINTGUID
  2
{FDEAD576-A652-11D2-9A35-0060089B3A3F}
  9
$VERSIONGUID
  2
{3F46DFA6-823A-41C4-940C-302576B67905}
  9
$EXTNAMES
290
     1
  9
$PSVPSCALE
 40
0.0
  9
$OLESTARTUP
290
     0
  0
ENDSEC
  0
SECTION
  2
CLASSES
  0
CLASS
  1
ACDBDICTIONARYWDFLT
  2
AcDbDictionaryWithDefault
  3
ObjectDBX Classes
 90
        0
280
     0
281
     0
  0
CLASS
  1
ACDBPLACEHOLDER
  2
AcDbPlaceHolder
  3
ObjectDBX Classes
 90
        0
280
     0
281
     0
  0
CLASS
  1
LAYOUT
  2
AcDbLayout
  3
ObjectDBX Classes
 90
        0
280
     0
281
     0
  0
CLASS
  1
DICTIONARYVAR
  2
AcDbDictionaryVar
  3
ObjectDBX Classes
 90
        0
280
     0
281
     0
  0
CLASS
  1
IMAGEDEF
  2
AcDbRasterImageDef
  3
ISM
 90
        0
280
     0
281
     0
  0
CLASS
  1
RASTERVARIABLES
  2
AcDbRasterVariables
  3
ISM
 90
        0
280
     0
281
     0
  0
CLASS
  1
IMAGEDEF_REACTOR
  2
AcDbRasterImageDefReactor
  3
ISM
 90
        1
280
     0
281
     0
  0
CLASS
  1
IMAGE
  2
AcDbRasterImage
  3
ISM
 90
      127
280
     0
281
     1
  0
ENDSEC
  0
SECTION
  2
TABLES
  0
TABLE
  2
VPORT
  5
8
330
0
100
AcDbSymbolTable
 70
     5
  0
VPORT
  5
DC
330
8
100
AcDbSymbolTableRecord
100
AcDbViewportTableRecord
  2
*Active
 70
     0
 10
0.0
 20
0.0
 11
1.0
 21
1.0
 12
6.000000000000001
 22
4.5
 13
0.0
 23
0.0
 14
0.5
 24
0.5
 15
0.5
 25
0.5
 16
0.0
 26
0.0
 36
1.0
 17
0.0
 27
0.0
 37
0.0
 40
9.071334214002643
 41
1.568783068783068
 42
50.0
 43
0.0
 44
0.0
 50
0.0
 51
0.0
 71
     0
 72
  1000
 73
     1
 74
     3
 75
     0
 76
     1
 77
     0
 78
     0
281
     0
 65
     1
110
0.0
120
0.0
130
0.0
111
1.0
121
0.0
131
0.0
112
0.0
122
1.0
132
0.0
 79
     0
146
0.0
  0
ENDTAB
  0
TABLE
  2
LTYPE
  5
5
330
0
100
AcDbSymbolTable
 70
     1
  0
LTYPE
  5
14
330
5
100
AcDbSymbolTableRecord
100
AcDbLinetypeTableRecord
  2
ByBlock
 70
     0
  3

 72
    65
 73
     0
 40
0.0
  0
LTYPE
  5
15
330
5
100
AcDbSymbolTableRecord
100
AcDbLinetypeTableRecord
  2
ByLayer
 70
     0
  3

 72
    65
 73
     0
 40
0.0
  0
LTYPE
  5
16
330
5
100
AcDbSymbolTableRecord
100
AcDbLinetypeTableRecord
  2
Continuous
 70
     0
  3
Solid line
 72
    65
 73
     0
 40
0.0
  0
ENDTAB
  0
TABLE
  2
LAYER
  5
2
330
0
100
AcDbSymbolTable
 70
     2
  0
LAYER
  5
10
330
2
100
AcDbSymbolTableRecord
100
AcDbLayerTableRecord
  2
0
 70
     0
 62
    -7
  6
Continuous
370
    -3
390
F
  0
LAYER
  5
90
330
2
100
AcDbSymbolTableRecord
100
AcDbLayerTableRecord
  2
Layer1
 70
     0
 62
     7
  6
Continuous
370
    -3
390
F
  0
ENDTAB
  0
TABLE
  2
STYLE
  5
3
330
0
100
AcDbSymbolTable
 70
     1
  0
STYLE
  5
11
330
3
100
AcDbSymbolTableRecord
100
AcDbTextStyleTableRecord
  2
Standard
 70
     0
 40
0.0
 41
1.0
 50
0.0
 71
     0
 42
0.2
  3
txt
  4

  0
ENDTAB
  0
TABLE
  2
VIEW
  5
6
330
0
100
AcDbSymbolTable
 70
     0
  0
ENDTAB
  0
TABLE
  2
UCS
  5
7
330
0
100
AcDbSymbolTable
 70
     0
  0
ENDTAB
  0
TABLE
  2
APPID
  5
9
330
0
100
AcDbSymbolTable
 70
     1
  0
APPID
  5
12
330
9
100
AcDbSymbolTableRecord
100
AcDbRegAppTableRecord
  2
ACAD
 70
     0
  0
ENDTAB
  0
TABLE
  2
DIMSTYLE
  5
A
330
0
100
AcDbSymbolTable
 70
     1
100
AcDbDimStyleTable
 71
     0
  0
DIMSTYLE
105
27
330
A
100
AcDbSymbolTableRecord
100
AcDbDimStyleTableRecord
  2
Standard
 70
     0
340
11
  0
ENDTAB
  0
TABLE
  2
BLOCK_RECORD
  5
1
330
0
100
AcDbSymbolTable
 70
     1
  0
BLOCK_RECORD
  5
1F
330
1
100
AcDbSymbolTableRecord
100
AcDbBlockTableRecord
  2
*Model_Space
340
22
  0
BLOCK_RECORD
  5
58
330
1
100
AcDbSymbolTableRecord
100
AcDbBlockTableRecord
  2
*Paper_Space
340
59
  0
BLOCK_RECORD
  5
5D
330
1
100
AcDbSymbolTableRecord
100
AcDbBlockTableRecord
  2
*Paper_Space0
340
5E
  0
ENDTAB
  0
ENDSEC
  0
SECTION
  2
BLOCKS
  0
BLOCK
  5
20
330
1F
100
AcDbEntity
  8
0
100
AcDbBlockBegin
  2
*Model_Space
 70
     0
 10
0.0
 20
0.0
 30
0.0
  3
*Model_Space
  1

  0
ENDBLK
  5
21
330
1F
100
AcDbEntity
  8
0
100
AcDbBlockEnd
  0
BLOCK
  5
5A
330
58
100
AcDbEntity
 67
     1
  8
0
100
AcDbBlockBegin
  2
*Paper_Space
 70
     0
 10
0.0
 20
0.0
 30
0.0
  3
*Paper_Space
  1

  0
ENDBLK
  5
5B
330
58
100
AcDbEntity
 67
     1
  8
0
100
AcDbBlockEnd
  0
BLOCK
  5
5F
330
5D
100
AcDbEntity
  8
0
100
AcDbBlockBegin
  2
*Paper_Space0
 70
     0
 10
0.0
 20
0.0
 30
0.0
  3
*Paper_Space0
  1

  0
ENDBLK
  5
60
330
5D
100
AcDbEntity
  8
0
100
AcDbBlockEnd
  0
ENDSEC
  0
SECTION
  2
ENTITIES
  0
IMAGE
  5
8D
330
1F
100
AcDbEntity
  8
0
 92
      140
310
8C0000000100000084000000060000000500000068DD2B44E42C0140A8DEB6269D42C93F00000000000000006EDD2B44E42C01403D7A581B95CF21400000000000000000A4A2A1DC03F225403C7A581B95CF21400000000000000000A2A2A1DC03F225405ADEB6269D42C93F000000000000000068DD2B44E42C0140A8DEB6
310
269D42C93F0000000000000000
100
AcDbRasterImage
 90
        0
 10
2.146919758404397
 20
0.1973453940424765
 30
0.0
 11
0.0147096099251783
 21
0.0
 31
0.0
 12
0.0
 22
0.0147096099251783
 32
0.0
 13
600.0
 23
592.0
340
8A
 70
     7
280
     0
281
    50
282
    50
283
     0
360
8C
 71
     1
 91
        2
 14
-0.5
 24
-0.5
 14
599.5
 24
591.5
  0
LINE
  5
91
330
1F
100
AcDbEntity
  8
Layer1
100
AcDbLine
 10
5.136791227660587
 20
1.060801944327891
 30
0.0
 11
5.880109880305383
 21
1.62401557346708
 31
0.0
  0
ARC
  5
92
330
1F
100
AcDbEntity
  8
Layer1
100
AcDbCircle
 10
6.901798344455301
 20
8.742748113458503
 30
0.0
 40
7.191675763944711
100
AcDbArc
 50
261.8326189136221
 51
269.0238995748725
  0
LINE
  5
93
330
1F
100
AcDbEntity
  8
Layer1
100
AcDbLine
 10
6.779285686896487
 20
1.552115947755154
 30
0.0
 11
7.23486809866182
 21
1.012868881640788
 31
0.0
  0
LINE
  5
94
330
1F
100
AcDbEntity
  8
Layer1
100
AcDbLine
 10
7.23486809866182
 20
1.012868881640788
 30
0.0
 11
8.193988923682702
 21
1.288484050173963
 31
0.0
  0
LINE
  5
95
330
1F
100
AcDbEntity
  8
Layer1
100
AcDbLine
 10
8.193988923682702
 20
1.288484050173963
 30
0.0
 11
8.313879026810312
 21
2.019463430399287
 31
0.0
  0
ARC
  5
96
330
1F
100
AcDbEntity
  8
Layer1
100
AcDbCircle
 10
8.055240702845953
 20
2.961005723075878
 30
0.0
 40
0.9796637415682075
100
AcDbArc
 50
286.0362297238103
 51
334.2076897677013
  0
LINE
  5
97
330
1F
100
AcDbEntity
  8
Layer1
100
AcDbLine
 10
8.937307576327498
 20
2.534743975730528
 30
0.0
 11
9.75256029747566
 21
2.51077743382655
 31
0.0
  0
LINE
  5
98
330
1F
100
AcDbEntity
  8
Layer1
100
AcDbLine
 10
9.75256029747566
 20
2.51077743382655
 30
0.0
 11
10.14819765767719
 21
3.193823730243927
 31
0.0
  0
LINE
  5
99
330
1F
100
AcDbEntity
  8
Layer1
100
AcDbLine
 10
10.14819765767719
 20
3.193823730243927
 30
0.0
 11
9.716593279790991
 21
3.840920234926183
 31
0.0
  0
ARC
  5
9A
330
1F
100
AcDbEntity
  8
Layer1
100
AcDbCircle
 10
8.204161409987159
 20
4.427432396548343
 30
0.0
 40
1.622173442184593
100
AcDbArc
 50
338.8040009763697
 51
12.394388771256
  0
LINE
  5
9B
330
1F
100
AcDbEntity
  8
Layer1
100
AcDbLine
 10
9.800516365233924
 20
4.775615179093605
 30
0.0
 11
10.34002182930817
 21
5.1830463069778
 31
0.0
  0
LINE
  5
9C
330
1F
100
AcDbEntity
  8
Layer1
100
AcDbLine
 10
10.34002182930817
 20
5.1830463069778
 30
0.0
 11
10.18416467536186
 21
5.973942020842219
 31
0.0
  0
LINE
  5
9D
330
1F
100
AcDbEntity
  8
Layer1
100
AcDbLine
 10
10.18416467536186
 20
5.973942020842219
 30
0.0
 11
9.464824056596199
 21
6.03385835448131
 31
0.0
  0
ARC
  5
9E
330
1F
100
AcDbEntity
  8
Layer1
100
AcDbCircle
 10
7.622606714713084
 20
5.028615641674464
 30
0.0
 40
2.104403344601271
100
AcDbArc
 50
28.90637313155906
 51
57.3652619362672
  0
LINE
  5
A0
330
1F
100
AcDbEntity
  8
Layer1
100
AcDbLine
 10
8.745483437830536
 20
7.675566136970083
 30
0.0
 11
8.217966957561834
 21
7.999114389311209
 31
0.0
  0
LINE
  5
A1
330
1F
100
AcDbEntity
  8
Layer1
100
AcDbLine
 10
8.217966957561834
 20
7.999114389311209
 30
0.0
 11
7.258846099406923
 21
7.519783656835933
 31
0.0
  0
ARC
  5
A2
330
1F
100
AcDbEntity
  8
Layer1
100
AcDbCircle
 10
6.875197772711973
 20
6.272334419659962
 30
0.0
 40
1.308685793843995
100
AcDbArc
 50
72.40320766063985
 51
109.2566283951828
  0
LINE
  5
A3
330
1F
100
AcDbEntity
  8
Layer1
100
AcDbLine
 10
6.455582395198327
 20
7.519783656835933
 30
0.0
 11
6.000000016567014
 21
8.059030744071147
 31
0.0
  0
LINE
  5
A4
330
1F
100
AcDbEntity
  8
Layer1
100
AcDbLine
 10
6.000000016567014
 20
8.059030744071147
 30
0.0
 11
5.256681330788197
 21
7.915231513768144
 31
0.0
  0
LINE
  5
A5
330
1F
100
AcDbEntity
  8
Layer1
100
AcDbLine
 10
5.256681330788197
 20
7.915231513768144
 30
0.0
 11
5.04087915841211
 21
7.02846965340867
 31
0.0
  0
ARC
  5
A6
330
1F
100
AcDbEntity
  8
Layer1
100
AcDbCircle
 10
5.593646468660021
 20
5.610528303778901
 30
0.0
 40
1.533047983536262
100
AcDbArc
 50
111.1350534858584
 51
150.3301282733559
  0
LINE
  5
A8
330
1F
100
AcDbEntity
  8
Layer1
100
AcDbLine
 10
3.338439647612403
 20
6.35740660682244
 30
0.0
 11
3.062692423672508
 21
5.710310123261027
 31
0.0
  0
LINE
  5
A9
330
1F
100
AcDbEntity
  8
Layer1
100
AcDbLine
 10
3.062692423672508
 20
5.710310123261027
 30
0.0
 11
3.662142939310562
 21
4.835531512732696
 31
0.0
  0
LINE
  5
AB
330
1F
100
AcDbEntity
  8
Layer1
100
AcDbLine
 10
3.61418690468632
 20
4.236368091858391
 30
0.0
 11
3.062692423672508
 21
3.565305066393005
 31
0.0
  0
LINE
  5
AC
330
1F
100
AcDbEntity
  8
Layer1
100
AcDbLine
 10
3.062692423672508
 20
3.565305066393005
 30
0.0
 11
3.290483612988168
 21
2.882258748854784
 31
0.0
  0
LINE
  5
AD
330
1F
100
AcDbEntity
  8
Layer1
100
AcDbLine
 10
3.290483612988168
 20
2.882258748854784
 30
0.0
 11
4.393472575015792
 21
2.64259339317757
 31
0.0
  0
ARC
  5
AE
330
1F
100
AcDbEntity
  8
Layer1
100
AcDbCircle
 10
5.517845264728629
 20
3.314609961993774
 30
0.0
 40
1.303785986909505
100
AcDbArc
 50
210.4139394462424
 51
231.4419957060537
  0
LINE
  5
AF
330
1F
100
AcDbEntity
  8
Layer1
100
AcDbLine
 10
4.705186849774384
 20
2.295078598932466
 30
0.0
 11
4.537340712022533
 21
1.50418288506805
 31
0.0
  0
LINE
  5
B0
330
1F
100
AcDbEntity
  8
Layer1
100
AcDbLine
 10
4.537340712022533
 20
1.50418288506805
 30
0.0
 11
5.136791227660587
 21
1.060801944327891
 31
0.0
  0
ARC
  5
B3
330
1F
100
AcDbEntity
  8
Layer1
100
AcDbCircle
 10
6.682999630175745
 20
4.548904672374533
 30
0.0
 40
2.29568045931224
100
AcDbArc
 50
119.3895400206734
 51
109.1989679188592
  0
ARC
  5
B5
330
1F
100
AcDbEntity
  8
Layer1
100
AcDbCircle
 10
7.368574971288994
 20
5.07519688953076
 30
0.0
 40
2.495800876751239
100
AcDbArc
 50
151.6187821370449
 51
180.8253237681098
  0
ARC
  5
B6
330
1F
100
AcDbEntity
  8
Layer1
100
AcDbCircle
 10
4.28517154691183
 20
4.400267031309366
 30
0.0
 40
0.8682606813007723
100
AcDbArc
 50
330.5016057304388
 51
47.38595218845573
  0
ARC
  5
B7
330
1F
100
AcDbEntity
  8
Layer1
100
AcDbCircle
 10
4.236204622375205
 20
2.286120980976907
 30
0.0
 40
1.86873539771745
100
AcDbArc
 50
29.90451325944901
 51
64.49445573201306
  0
ARC
  5
B8
330
1F
100
AcDbEntity
  8
Layer1
100
AcDbCircle
 10
6.641294420571045
 20
3.191779289180701
 30
0.0
 40
0.7733007662152359
100
AcDbArc
 50
178.9605948737215
 51
294.2676529716437
  0
ARC
  5
B9
330
1F
100
AcDbEntity
  8
Layer1
100
AcDbCircle
 10
6.868910595413829
 20
5.872001656972356
 30
0.0
 40
0.8984312025202793
100
AcDbArc
 50
348.8540451408452
 51
72.5078950790457
  0
ARC
  5
BB
330
1F
100
AcDbEntity
  8
Layer1
100
AcDbCircle
 10
16.31133411256686
 20
2.86206459375225
 30
0.0
 40
8.471525096121732
100
AcDbArc
 50
168.3558198963736
 51
177.755627217034
  0
ARC
  5
BC
330
1F
100
AcDbEntity
  8
Layer1
100
AcDbCircle
 10
6.688549970396247
 20
3.677659865026296
 30
0.0
 40
1.239125058441508
100
AcDbArc
 50
268.651808828435
 51
337.6170526586725
  0
ARC
  5
BD
330
1F
100
AcDbEntity
  8
Layer1
100
AcDbCircle
 10
8.67547940481932
 20
5.593028906473141
 30
0.0
 40
0.9191462772438148
100
AcDbArc
 50
173.4217184122146
 51
227.127519386459
  0
ARC
  5
BE
330
1F
100
AcDbEntity
  8
Layer1
100
AcDbCircle
 10
6.485626983708705
 20
4.874578310820262
 30
0.0
 40
1.565525279755118
100
AcDbArc
 50
339.7309204243108
 51
2.079956198193215
  0
ARC
  5
BF
330
1F
100
AcDbEntity
  8
Layer1
100
AcDbCircle
 10
7.271499490421791
 20
4.732448443093478
 30
0.0
 40
0.5829349090013382
100
AcDbArc
 50
73.3339338102214
 51
152.3137438311927
  0
ARC
  5
C0
330
1F
100
AcDbEntity
  8
Layer1
100
AcDbCircle
 10
7.132942741822315
 20
5.053194403388504
 30
0.0
 40
0.3872698747787904
100
AcDbArc
 50
192.8072632167091
 51
37.86385427202558
  0
ARC
  5
C1
330
1F
100
AcDbEntity
  8
Layer1
100
AcDbCircle
 10
5.890920282479671
 20
4.662406917446003
 30
0.0
 40
0.3728967864493861
100
AcDbArc
 50
125.1386865164697
 51
358.9820999408257
  0
LINE
  5
C2
330
1F
100
AcDbEntity
  8
Layer1
100
AcDbLine
 10
6.263758223567343
 20
4.667765761646563
 30
0.0
 11
6.227791205882674
 21
4.919414388275765
 31
0.0
  0
LINE
  5
C3
330
1F
100
AcDbEntity
  8
Layer1
100
AcDbLine
 10
6.227791205882674
 20
4.919414388275765
 30
0.0
 11
5.700274725613965
 21
4.979330743035703
 31
0.0
  0
ARC
  5
CA
330
1F
100
AcDbEntity
  8
Layer1
100
AcDbCircle
 10
6.843151066644416
 20
4.312084257276747
 30
0.0
 40
0.48040754230148
100
AcDbArc
 50
148.9437838393007
 51
222.9556004924094
  0
LINE
  5
CB
330
1F
100
AcDbEntity
  8
Layer1
100
AcDbLine
 10
6.443593378258761
 20
4.559916344199521
 30
0.0
 11
6.635417549889737
 21
4.068602340772255
 31
0.0
  0
LINE
  5
CC
330
1F
100
AcDbEntity
  8
Layer1
100
AcDbLine
 10
6.635417549889737
 20
4.080585611724245
 30
0.0
 11
6.491549446017025
 21
3.99670271506033
 31
0.0
  0
ARC
  5
CD
330
1F
100
AcDbEntity
  8
Layer1
100
AcDbCircle
 10
7.228770305929788
 20
4.484176004393771
 30
0.0
 40
0.6203558293829464
100
AcDbArc
 50
167.3687444029637
 51
223.5677963771832
  0
ARC
  5
CF
330
1F
100
AcDbEntity
  8
Layer1
100
AcDbCircle
 10
6.557360514204053
 20
4.271306927731323
 30
0.0
 40
0.3547325555500736
100
AcDbArc
 50
344.4904428431542
 51
79.26612690500846
  0
LINE
  5
D0
330
1F
100
AcDbEntity
  8
Layer1
100
AcDbLine
 10
6.779285686896486
 20
4.068602340772255
 30
0.0
 11
6.899175790024095
 21
4.16446848726731
 31
0.0
  0
ARC
  5
D2
330
1F
100
AcDbEntity
  8
Layer1
100
AcDbCircle
 10
4.52118653998038
 20
4.482583295549533
 30
0.0
 40
0.9398245926513247
100
AcDbArc
 50
157.9418810554075
 51
195.1875781114092
  0
LINE
  5
D6
330
1F
100
AcDbEntity
  8
Layer1
100
AcDbLine
 10
4.273582471888182
 20
6.369389877774427
 30
0.0
 11
3.350428664551969
 21
6.369389877774427
 31
0.0
  0
LINE
  5
D8
330
1F
100
AcDbEntity
  8
Layer1
100
AcDbLine
 10
8.75747242163608
 20
6.812770818514586
 30
0.0
 11
8.75747242163608
 21
7.675566136970083
 31
0.0
  0
ENDSEC
  0
SECTION
  2
OBJECTS
  0
DICTIONARY
  5
C
330
0
100
AcDbDictionary
281
     1
  3
ACAD_COLOR
350
73
  3
ACAD_GROUP
350
D
  3
ACAD_IMAGE_DICT
350
89
  3
ACAD_IMAGE_VARS
350
8B
  3
ACAD_LAYOUT
350
1A
  3
ACAD_MATERIAL
350
72
  3
ACAD_MLINESTYLE
350
17
  3
ACAD_PLOTSETTINGS
350
19
  3
ACAD_PLOTSTYLENAME
350
E
  3
ACDBHEADERROUNDTRIPXREC
350
DD
  3
AcDbVariableDictionary
350
66
  0
IMAGEDEF_REACTOR
  5
8C
330
8D
100
AcDbRasterImageDefReactor
 90
        2
330
8D
  0
DICTIONARY
  5
73
102
{ACAD_REACTORS
330
C
102
}
330
C
100
AcDbDictionary
281
     1
  0
DICTIONARY
  5
D
102
{ACAD_REACTORS
330
C
102
}
330
C
100
AcDbDictionary
281
     1
  0
DICTIONARY
  5
89
102
{ACAD_REACTORS
330
C
102
}
330
C
100
AcDbDictionary
281
     1
  3
logo.0
350
8A
  0
RASTERVARIABLES
  5
8B
102
{ACAD_REACTORS
330
C
102
}
330
C
100
AcDbRasterVariables
 90
        0
 70
     1
 71
     1
 72
     5
  0
DICTIONARY
  5
1A
102
{ACAD_REACTORS
330
C
102
}
330
C
100
AcDbDictionary
281
     1
  3
Layout1
350
59
  3
Layout2
350
5E
  3
Model
350
22
  0
DICTIONARY
  5
72
102
{ACAD_REACTORS
330
C
102
}
330
C
100
AcDbDictionary
281
     1
  0
DICTIONARY
  5
17
102
{ACAD_REACTORS
330
C
102
}
330
C
100
AcDbDictionary
281
     1
  3
Standard
350
18
  0
DICTIONARY
  5
19
102
{ACAD_REACTORS
330
C
102
}
330
C
100
AcDbDictionary
281
     1
  0
ACDBDICTIONARYWDFLT
  5
E
102
{ACAD_REACTORS
330
C
102
}
330
C
100
AcDbDictionary
281
     1
  3
Normal
350
F
100
AcDbDictionaryWithDefault
340
F
  0
DICTIONARY
  5
DD
102
{ACAD_REACTORS
330
C
102
}
330
C
100
AcDbDictionary
281
     1
  3
COLORDICT
350
DF
  3
MATERIALDICT
350
DE
  0
DICTIONARY
  5
66
102
{ACAD_REACTORS
330
C
102
}
330
C
100
AcDbDictionary
281
     1
  3
DIMASSOC
350
67
  3
HIDETEXT
350
6B
  3
PROJECTNAME
350
DB
  0
IMAGEDEF
  5
8A
102
{ACAD_REACTORS
330
89
330
8C
102
}
330
89
100
AcDbRasterImageDef
 90
        0
  1
C:\Users\skylab8\Pictures\Saved Pictures\logo.0.png
 10
600.0
 20
592.0
 11
0.0016666666666667
 21
0.0016666666666667
280
     1
281
     0
  0
LAYOUT
  5
59
102
{ACAD_XDICTIONARY
360
E2
102
}
102
{ACAD_REACTORS
330
1A
102
}
330
1A
100
AcDbPlotSettings
  1

  2
None
  4

  6

 40
0.0
 41
0.0
 42
0.0
 43
0.0
 44
0.0
 45
0.0
 46
0.0
 47
0.0
 48
0.0
 49
0.0
140
0.0
141
0.0
142
1.0
143
1.0
 70
   688
 72
     0
 73
     0
 74
     5
  7

 75
    16
147
1.0
148
0.0
149
0.0
100
AcDbLayout
  1
Layout1
 70
     1
 71
     1
 10
0.0
 20
0.0
 11
12.0
 21
9.0
 12
0.0
 22
0.0
 32
0.0
 14
0.0
 24
0.0
 34
0.0
 15
0.0
 25
0.0
 35
0.0
146
0.0
 13
0.0
 23
0.0
 33
0.0
 16
1.0
 26
0.0
 36
0.0
 17
0.0
 27
1.0
 37
0.0
 76
     0
330
58
  0
LAYOUT
  5
5E
102
{ACAD_XDICTIONARY
360
E4
102
}
102
{ACAD_REACTORS
330
1A
102
}
330
1A
100
AcDbPlotSettings
  1

  2
None
  4

  6

 40
0.0
 41
0.0
 42
0.0
 43
0.0
 44
0.0
 45
0.0
 46
0.0
 47
0.0
 48
0.0
 49
0.0
140
0.0
141
0.0
142
1.0
143
1.0
 70
   688
 72
     0
 73
     0
 74
     5
  7

 75
    16
147
1.0
148
0.0
149
0.0
100
AcDbLayout
  1
Layout2
 70
     1
 71
     2
 10
0.0
 20
0.0
 11
12.0
 21
9.0
 12
0.0
 22
0.0
 32
0.0
 14
0.0
 24
0.0
 34
0.0
 15
0.0
 25
0.0
 35
0.0
146
0.0
 13
0.0
 23
0.0
 33
0.0
 16
1.0
 26
0.0
 36
0.0
 17
0.0
 27
1.0
 37
0.0
 76
     0
330
5D
  0
LAYOUT
  5
22
102
{ACAD_XDICTIONARY
360
E0
102
}
102
{ACAD_REACTORS
330
1A
102
}
330
1A
100
AcDbPlotSettings
  1

  2
none_device
  4
ANSI_A_(8.50_x_11.00_Inches)
  6

 40
6.349999904632568
 41
19.04999923706055
 42
6.350006103515625
 43
19.04998779296875
 44
215.8999938964844
 45
279.3999938964844
 46
0.0
 47
0.0
 48
0.0
 49
0.0
140
0.0
141
0.0
142
1.0
143
2.584895464708373
 70
 11952
 72
     0
 73
     1
 74
     0
  7

 75
     0
147
0.3868628397755418
148
0.0
149
0.0
100
AcDbLayout
  1
Model
 70
     1
 71
     0
 10
0.0
 20
0.0
 11
12.0
 21
9.0
 12
0.0
 22
0.0
 32
0.0
 14
0.0
 24
0.0
 34
0.0
 15
0.0
 25
0.0
 35
0.0
146
0.0
 13
0.0
 23
0.0
 33
0.0
 16
1.0
 26
0.0
 36
0.0
 17
0.0
 27
1.0
 37
0.0
 76
     0
330
1F
  0
MLINESTYLE
  5
18
102
{ACAD_REACTORS
330
17
102
}
330
17
100
AcDbMlineStyle
  2
STANDARD
 70
     0
  3

 62
   256
 51
90.0
 52
90.0
 71
     2
 49
0.5
 62
   256
  6
BYLAYER
 49
-0.5
 62
   256
  6
BYLAYER
  0
ACDBPLACEHOLDER
  5
F
102
{ACAD_REACTORS
330
E
102
}
330
E
  0
XRECORD
  5
DF
102
{ACAD_REACTORS
330
DD
102
}
330
DD
100
AcDbXrecord
280
     1
340
73
  0
XRECORD
  5
DE
102
{ACAD_REACTORS
330
DD
102
}
330
DD
100
AcDbXrecord
280
     1
340
72
  0
DICTIONARYVAR
  5
67
102
{ACAD_REACTORS
330
66
102
}
330
66
100
DictionaryVariables
280
     0
  1
2
  0
DICTIONARYVAR
  5
6B
102
{ACAD_REACTORS
330
66
102
}
330
66
100
DictionaryVariables
280
     0
  1
1
  0
DICTIONARYVAR
  5
DB
102
{ACAD_REACTORS
330
66
102
}
330
66
100
DictionaryVariables
280
     0
  1

  0
DICTIONARY
  5
E2
330
59
100
AcDbDictionary
280
     1
281
     1
  3
ACAD_XREC_ROUNDTRIP
360
E3
  0
DICTIONARY
  5
E4
330
5E
100
AcDbDictionary
280
     1
281
     1
  3
ACAD_XREC_ROUNDTRIP
360
E5
  0
DICTIONARY
  5
E0
330
22
100
AcDbDictionary
280
     1
281
     1
  3
ACAD_XREC_ROUNDTRIP
360
E1
  0
XRECORD
  5
E3
102
{ACAD_REACTORS
330
E2
102
}
330
E2
100
AcDbXrecord
280
     1
102
SHADEPLOT
 70
     0
102
SHADEPLOTRESLEVEL
 70
     2
102
SHADEPLOTCUSTOMDPI
 70
   300
  0
XRECORD
  5
E5
102
{ACAD_REACTORS
330
E4
102
}
330
E4
100
AcDbXrecord
280
     1
102
SHADEPLOT
 70
     0
102
SHADEPLOTRESLEVEL
 70
     2
102
SHADEPLOTCUSTOMDPI
 70
   300
  0
XRECORD
  5
E1
102
{ACAD_REACTORS
330
E0
102
}
330
E0
100
AcDbXrecord
280
     1
102
SHADEPLOT
 70
     0
102
SHADEPLOTRESLEVEL
 70
     2
102
SHADEPLOTCUSTOMDPI
 70
   300
  0
ENDSEC
  0
EOF
